» » »

Baby Ran Bass tabs (ver.1)

Artists:  A B C D E F G H I J K L M N O P Q R S T U V W X Y Z # 

Baby Ran Bass tabs (ver.1)

54-40
Rating:
0/5 (0 votes)

Hard to play? Try these video lessons and learn fast.
                Baby Ran Bass Tab
-----------------
By 54-40

                                  x2
G|----------------|------7---7-----|
D|----------------|7-7-7-------7-7-|
A|5---5---5-5-5---|----------------|
E|----------------|----------------|

G|----------------|------5---5-----|
D|----------------|5-5-5-------5-5-|
A|3---3---3-3-3---|----------------|
E|----------------|----------------|

G|----------------|----------------|
D|----------------|----------------|
A|----------------|----------------|
E|3---3---3-3-3---|3-3-3-3-3-3-3-3-|
            
Hard to play? Try these video lessons and learn fast. | Correct




comments powered by Disqus
↑ Back to top | Tablatures and chords are parodies/interpretations of the original songs. You may use it for private study, scholarship, research or language learning purposes only