» » »

54-40, Assoholic Tabs (ver.1)

Artists:  A B C D E F G H I J K L M N O P Q R S T U V W X Y Z # 

Assoholic Tabs (ver.1)

54-40 Tabs
Rating:
5/5 (1 vote)
Assoholic lessons Tabs too difficult? Try these video lessons and learn fast
                                                    Assoholic
                                      54-40
                                 Transcripted by Rob Stupka
I transcripted this tab cause I don't think there are that many CANADIAN tabs
out there as there should be,  in my impression Amreican music is overrated
it all sounds the same and most of the alternative bands out there
last only for 1 year and become popular on songs that freature only
power chords no solo's CANADIAN MUSIC rules at lest each band sounds unique
unlike these bands from seattle that all sound the same.  Like Pearl Jam
and S.T.P or Foo fighters and Nirvana and Hole.  Oh yeah the Grammys are rigged too.  
IT I had it my way, The Hip
would clean out every award

  Intro  Gtr I                                                                  
-||------------------------|----------------------|----------------------|------
-||------------------------|----------------------|----------------------|------
-||*--9---9--11--9--9--12--|--9--9--11--9--9--12--|--9--9--11--9--9--12--|------
-||*--9---9--9---9--9--9---|--9--9--9---9--9--9---|--9--9--9---9--9--9---|------
-||------------------------|----------------------|----------------------|------
-||------------------------|----------------------|----------------------|------
                                                                                

                     Gtr II,bass,drums aft 1st  Intro  Gtr II                   
-----------------||----------------------------||-------------------------------
------10h8--\5---||----------------------------||-------------------------------
9--9------------*||----------------------------||*--9------9-----9-----9--------
9--9------------*||----------------------------||*--9------9-----9-----9--------
-----------------||----------------------------||---7------7-----7-----7--------
-----------------||----------------------------||-------------------------------
                                                                                

                                                              Verse             
---|--------------------------------|---------------------||--------------------
---|--------------------------------|---------------------||--------------------
9--|--7-----7-----7-----7-----7-----|--------------------*||--------------------
9--|--7-----7-----7-----7-----7-----|--7--7--7--7--7-----*||--------------------
7--|--5-----5-----5-----5-----5-----|--7--7--7--7--7------||--------------------
---|--------------------------------|--5--5--5--5--5------||--------------------
                                                                                

Gtr I   Half - human       reveals it -   like the car of your dreams be -      
-||-------------------|------------------|--------------------------------------
-||-------------------|------------------|--------------------------------------
-||---9--x------------|--7--x------------|--------------------------------------
-||---9-----x-----x---|--7-----x-----x---|--7--x--------------------------------
-||---7--------x------|--5--------x------|--7-----x-----x-----------------------
-||-------------------|------------------|--5--------x--------------------------
                                                                                

 comes the crash of      in the hills      dealers   play                       
-|------------------|------------------|----------------------------------------
-|------------------|------------------|----------------------------------------
-|------------------|--9--x------------|--9--x----------------------------------
-|--x-----------x---|--9-----x-----x---|--9-----x-----x-------------------------
-|-----x-----x------|--7--------x------|--7--------x----------------------------
-|--------x---------|------------------|----------------------------------------
                                                                                

      the blame gam    the winner is         a    chronicC          w  Gtr I    
-|------------------|------------------|-------------------||-------------------
-|------------------|------------------|-------------------||-------------------
-|--7--x------------|------------------|-------------------||*--11--11--11------
-|--7-----x-----x---|--7--x------------|--x-----------x----||*--9---9---9-------
-|--5--------x------|--7-----x-----x---|-----x-----x-------||-------------------
-|------------------|--5--------x------|--------x----------||-------------------
                                                                                

                                   w                                    w       
------------------||----------------------|------------------||-----------------
-------10h8--\5---||----------------------|--------10h8--\5--||-----------------
9--12------------*||--9--9--11--9--9--12--|--9--9------------||*--9--9--11------
9--9-------------*||--9--9--9---9--9--9---|--9--9------------||*--9--9--9-------
------------------||----------------------|------------------||-----------------
------------------||----------------------|------------------||-----------------
                                                                                

                                                                                
----------|----------------------|----------------------|-----------------------
----------|----------------------|----------------------|--------10h8--\5-------
9--9--12--|--9--9--11--9--9--12--|--9--9--11--9--9--12--|--9--9-----------------
9--9--9---|--9--9--9---9--9--9---|--9--9--9---9--9--9---|--9--9-----------------
----------|----------------------|----------------------|-----------------------
----------|----------------------|----------------------|-----------------------
                                                                                

          Gtr II  Assoholic                      do I know you?                 
-||--||---------------------------------------|---------------------------------
-||--||---------------------------------------|---------------------------------
*||--||------9---9----------------------------|------9--9-----------------------
*||--||------9---9--9--9--10--10--10--10--10--|------9--9--9--9--10--10--10-----
-||--||------7---7--9--9--10--10--10--10--10--|------7--7--9--9--10--10--10-----
-||--||-------------7--7--8---8---8---8---8---|------------7--7--8---8---8------
                                                                                

          Assoholic                    do I know you     ohhh                   
----|-------------------------------|-------------------||----------------------
----|-------------------------------|-------------------||----------------------
----|--9---9------------------------|---9--9------------||*--9-----9-----9------
10--|--9---9--9--9--10--10--10--10--|---9--9--9--9--7---||*--9-----9-----9------
10--|--7---7--9--9--10--10--10--10--|---7--7--9--9--7---||---7-----7-----7------
8---|---------7--7--8---8---8---8---|---------7--7--5---||----------------------
                                                                                

               ohhh                           yeah                              
------------|------------------------------|----------------------------||------
------------|------------------------------|----------------------------||------
---9-----9--|---7-----7-----7-----7-----7--|---------------------------*||------
---9-----9--|---7-----7-----7-----7-----7--|---7-----7-----7-----7--7--*||------
---7-----7--|---5-----5-----5-----5-----5--|---7-----7-----7-----7--7---||------
------------|------------------------------|---5-----5-----5-----5--5---||------
                                                                                

 Who' s  de - cidin  now   or   never the animals'  ag   sonic de -fender       
----------------|------------------|-------------------|------------------------
----------------|------------------|-------------------|------------------------
-9--x-----------|---7--x-----------|-------------------|------------------------
-9-----x-----x--|---7-----x-----x--|---7--x------------|--x------------x--------
-7--------x-----|---5--------x-----|---7-----x-----x---|-----x------x-----------
----------------|------------------|---5--------x------|--------x---------------
                                                                                

   three blue suits   the button to pu   the best laid pl  dis - torted         
-|------------------|------------------|------------------|---------------------
-|------------------|------------------|------------------|---------------------
-|--9--x------------|--9--x------------|--7--x------------|---------------------
-|--9-----x-----x---|--9-----x-----x---|--7-----x-----x---|--7--x---------------
-|--7--------x------|--7--------x------|--5--------x------|--7-----x------------
-|------------------|------------------|------------------|--5------------------
                                                                                

 by the      deaf - like      C                Gtr I                            
-------|------------------||----||--------------------------------|-------------
-------|------------------||----||----------------------10h8--\5--|-------------
-------|------------------||----||*--11--11--11--9--12------------|--11--11-----
-------|---x-----------x--||----||*--9---9---9---9--9-------------|--9---9------
----x--|------x-----x-----||----||--------------------------------|-------------
-x-----|---------x--------||----||--------------------------------|-------------
                                                                                

                                                                                
--------------------------------------------------|----------------------|------
-----------10h8--\5---------------------10h8--\5--|----------------------|------
11--9--12------------11--11--11--9--12------------|--9--9--11--9--9--12--|------
9---9--9-------------9---9---9---9--9-------------|--9--9--9---9--9--9---|------
--------------------------------------------------|----------------------|------
--------------------------------------------------|----------------------|------
                                                                                

                     Choru             Assoholic                                
-----------------||---||---------------------------------------|----------------
------10h8--\5---||---||---------------------------------------|----------------
9--9------------*||---||------9---9----------------------------|----------------
9--9------------*||---||------9---9--9--9--10--10--10--10--10--|----------------
-----------------||---||------7---7--9--9--10--10--10--10--10--|----------------
-----------------||---||-------------7--7--8---8---8---8---8---|----------------
                                                                                

do I know you?                              Assoholic                           
--------------------------------------|-------------------------------|---------
--------------------------------------|-------------------------------|---------
----9--9------------------------------|--9---9------------------------|---------
----9--9--9--9--10--10--10--10--------|--9---9--9--9--10--10--10--10--|---------
----7--7--9--9--10--10--10--10--------|--7---7--9--9--10--10--10--10--|---------
----------7--7--8---8---8---8---------|---------7--7--8---8---8---8---|---------
                                                                                

do I know you                                                                   
----------------|----------------------------------|----------------------------
----------------|----------------------------------|----------------------------
-9--9-----------|--9--9----------------------------|--9--9----------------------
-9--9--9--9--7--|--9--9--9--9--10--10--10--10--10--|--9--9--9--9--10--10--10----
-7--7--9--9--7--|--7--7--9--9--10--10--10--10--10--|--7--7--9--9--10--10--10----
-------7--7--5--|--------7--7--8---8---8---8---8---|--------7--7--8---8---8-----
                                                                                

                                                                                
----|------------------------------|--------------------------------------------
----|------------------------------|--------------------------------------------
----|--9--9------------------------|--9--9--------------------------------------
10--|--9--9--9--9--10--10--10--10--|--9--9--9--9--10--10--10--7-----------------
10--|--7--7--9--9--10--10--10--10--|--7--7--9--9--10--10--10--7-----------------
8---|--------7--7--8---8---8---8---|--------7--7--8---8---8---5-----------------
                                                                                

Verse   Gtr II                                                                  
-||--------------------|-----------------|--------------------|-----------------
-||--------------------|-----------------|--------------------|-----------------
-||--9-----------------|--------------9--|--------------7-----|-----------------
-||--9-----------------|--9--------------|--7-----------------|-----------------
-||--7-----------------|-----------------|--------------------|-----------------
-||--------------------|-----------------|--------------------|-----------------
                                                                                

You     wanna     play      me      back -     wards        a       bad         
----------------------|---------------------|-----------------------------------
----------------------|---------------------|-----------------------------------
----------------------|---------------------|-----------------------------------
----------------------|---------------------|-----------------------------------
----------------------|---------------------|-----------------------------------
----------------------|---------------------|-----------------------------------
                                                                                

idea            who's           time     now is     Solo Gtr I                  
-------------------------|---------------------||-------------------------------
-------------------------|---------------------||-------------------------------
-------------------------|---------------------||*---11--11--11--9--11--12------
-------------------------|---------------------||*---9---9---9---9--9---9-------
-------------------------|---------------------||-------------------------------
-------------------------|---------------------||-------------------------------
                                                                                

                                                                                
--------------------------|-----------------------------------------------------
--------------------------|-----------------------------------------------------
12--12--12--12--11--9--7--|--11--11--11--9--11--12--12--12--12--12--11--9--7----
9---9---9---9---9---9--7--|--9---9---9---9--9---9---9---9---9---9---9---9--7----
--------------------------|-----------------------------------------------------
--------------------------|-----------------------------------------------------
                                                                                

                                                                                
|---------------------------------------------------|---------------------------
|---------------------------------------------------|---------------------------
|--11--11--11--9--11--12--12--12--12--12--11--9--7--|--9--9--11--9--9--12--9----
|--9---9---9---9--9---9---9---9---9---9---9---9--7--|--9--9--9---9--9--9---9----
|---------------------------------------------------|---------------------------
|---------------------------------------------------|---------------------------
                                                                                

                     Solo             Gtr II  Assoholic                         
--------------||---------||----------------------------------------|------------
---10h8--\5---||---------||----------------------------------------|------------
9------------*||---------||*------9--9-----------------------------|-----9------
9------------*||---------||*------9--9--9--9---10--10--10--10--10--|-----9------
--------------||---------||-------7--7--9--9---10--10--10--10--10--|-----7------
--------------||---------||-------------7--7---8---8---8---8---8---|------------
                                                                                

   Assoholic                                    Assoholic                       
------------------------------|--------------------------------------|----------
------------------------------|--------------------------------------|----------
9-----------------------------|-----9--9-----------------------------|----------
9---9--9--10--10--10--10--10--|-----9--9--9--9---10--10--10--10--10--|----------
7---9--9--10--10--10--10--10--|-----7--7--9--9---10--10--10--10--10--|----------
----7--7--8---8---8---8---8---|-----------7--7---8---8---8---8---8---|----------
                                                                                

do  I    k  you                                                                 
------------------||------------------------------------------------------------
------------------||------------------------------------------------------------
-9--9------------*||------------------------------------------------------------
-9--9--9---9--7--*||------------------------------------------------------------
-7--7--9---9--7---||------------------------------------------------------------
-------7---7--5---||------------------------------------------------------------
            

comments powered by Disqus
↑ Back to top | 54-40 Tabs for Assoholic. Lyrics for acoustic guitar and electric guitar. Tablatures and chords are parodies/interpretations of the original songs. You may use it for private study, scholarship, research or language learning purposes only