>
 >
Peilityyni

Peilityyni Guitar Tabs

51 Koodia - Peilityyni chords, tabs, tablatures, lyrics

Guitar lessons | Add/correct | Request | Top 50 tabs Artists:  A B C D E F G H I J K L M N O P Q R S T U V W X Y Z 0-9

Peilityyni Guitar Tabs – 51 Koodia

CD, Sheet music, Poster

Do you like Peilityyni? Share with your friends now
Tabs
51 Koodia - Peilityyni


Tuning: D A D G B e

Guitar 2 is really a cello, but I tabbed it also.. If someone like to play with guitar..

INTRO

 Guitar 1
|----------------------------------|---------------------------------|
|----------------------------------|---------------------------------|
|-----4----------------------------|-----4---------------------------| x2
|---4---4-----4-------7---7---5-h7-|---4---4-----4-------7---7---7---|
|-2---------5---5---5---5---5------|-2---------5---5---5---5---5---5-|
|---------0-------5----------------|---------0-------5---------------|
|
|(Guitar 2)
|----------------------------------|---------------------------------|
|-0--------------------------------|---------------------------------|
|-----------------0-----------0-p2-|---------------------------------| x2
|---------0------------------------|-4---------------0---------------|
|----------------------------------|-------------------------(4)-----|
|----------------------------------|---------------------------------|

VERSE 1st & 2nd

Guitar 1
Oomme     kahden taman yon	     ei  mui-	     ta
Liekit    nuotiosta lyo	      oot    hil-	     jaa
Syda-     mesi suljettu		     hak-            kaa
Sen avain pois on heitetty    jo     kau-            an	       Sitten
|----------------------------------|---------------------------------|
|----------------------------------|---------------------------------|
|-----4----------------------------|-----4---------------------------| x2
|---4---4-----4-------7---7---5-h7-|---4---4-----4-------7---7---7---|
|-2---------5---5---5---5----------|-2---------5---5---5---5---5---5-|
|---------0-------5----------------|---------0-------5---------------|

(Guitar 2)
|----------------------------------|---------------------------------|
|-0--------------------------------|---------------------------------|
|-----------------0-----------0-p2-|---------------------------------| x2
|---------0------------------------|-4---------------0---------------|
|-(2)------------------------------|---------------------------------|
|----------------------------------|---------------------------------|

Yk-     sin   maa-  il-   massas    oot
Yk-     sin   maa-  il-   maasi     jaat			jos
|---------------------------------|----------------------------------|
|---------------------------------|----------------------------------|
|-----4---------------------------|-----4----------------------------|
|---4-------4-----7-----2-----4---|---4---4-----4-------7---7---5-h7-| 
|-2-------5-----5-----2-----4---4-|-2---------5---5---5---5---5------|
|-------0-----5-----2-----4-------|---------0-------5----------------|

(Verse 2, Guitar 2)
|-------------------------9=------|-------------------------9=------|
|-7=--------------------------10=-|-7=--------------------------10=-|
|---------------------------------|---------------------------------|
|---------------------------------|---------------------------------|
|---------------------------------|---------------------------------|
|---------------------------------|---------------------------------|

 Vaik-  ka    vie-  rel-  lasi	    oot
 et     voi   luot- taa   kehen-    kaan
|---------------------------------|-----------------------|
|---------------------------------|-----------------------|
|-----4---------------------------|-----------------------| x2
|---4-------4-----7-----2-----4---|-----5-----5---------7-|
|-2-------5-----5-----2-----4---4-|---5-----5---5-----7---|
|-------0-----5-----2-----4-------|-5-----5-------5-7-----|

(Verse 2, Guitar 2)
|-------------------------9=------|-----------------------|
|-7=--------------------------10=-|-12=------s10=---------|
|---------------------------------|-----------------------|
|---------------------------------|-----------------------|
|---------------------------------|-----------------------|
|---------------------------------|-----------------------|

CHORUS

Peilityyni	pinnan 		    alla 	   siella on sun
Peilityyni	pinnan 		    alta 	   sielta loytyy

 Bm (sus2)	 A (sus2)	     G...	   F#...
|------------------2---------------|---------------------------------|
|-------2---3--------2---2---------|------------------7------3-------|
|-----4----------------4---4-2-----|-------7------------6------6-4-6-|
|---4--------------------------2---|-----7-----7-5--------4----------|
|-2--------------0-----------------|---5-----------------------------|
|----------------------------------|-5--------------4----------------|

salaisuus	sen tahtoisin	    tie-       taa
uponnut aarre	joka odot - 	    taa loyta- jaansa oike -
 Bm (sus2)	 A (sus2)	     G	       F#
|------------------2---------------|--------------------|
|-------2---3--------2---2---------|---------------(7)--|
|-----4----------------4---4-0-----|-------7--------6---|
|---4--------------------------2---|-----7-----7-5--4---|
|-2--------------0-----------------|---5------------4---|
|----------------------------------|-5--------------4---|

aa
|----------------------------------|----------------------------------------|
|----------------------------------|----------------------------------------|
|-----4----------------------------|-----4----------------------------------|
|---4---4-----4-------7---7---5-h7-|---4---4-----4-------7---7---7-7-h9-7-5-|
|-2---------5---5---5---5---5------|-2---------5---5---5---5---5------------|
|---------0-------5----------------|---------0-------5----------------------|

(Guitar 2)
|----------------------------------|---------------------------------|
|-0--------------------------------|---------------------------------|
|-----------------0-----------0-p2-|---------------------------------| x2
|---------0------------------------|-4---------------0---------------|
|----------------------------------|-------------------------(4)-----|
|----------------------------------|---------------------------------|

VERSE (2nd)

CHORUS

PART C

...aa
|-------------------------------|--------------------------------------|
|-------------------------------|--------------------------------------|
|---7-----7---------7-----7-----|---11------11-----------9-----9-------| x2
|-----7-----7---------7-----7---|------11------11---11-----9-----9---9-|
|-------5-----5---------5-----5-|---------9-------9----------7-----7---|
|-5-------------5---------------|-9--------------------7---------------|

(Guitar 2)
|-------------------------------|----------------------2---0-----0-----|
|-0---------0-0-2---0---2--s3---|-0---------------0-0---------3--------|
|-------------------------------|--------------------------------------| x2
|-------------------------------|--------------------------------------|
|-------------------------------|--------------------------------------|
|-------------------------------|--------------------------------------|

|------------------|
|--------------(7)-|
|---7-----------6--|
|-----7---------4--|
|---------------4--|
|-5-------------4--|

(Guitar 2)
|-0-2---------------------|
|-----3----2-h3-2-------0-|
|-----------------3---3---|
|-------------------4-----|
|-------------------------|
|-------------------------|

xxxxxxxxxxxxxxxxxxxxxxxxxxxxxxxxxxxxxxxxxxxxxxxxxxxxxxxxxxxxxxxxxxxxxxxxxxxxx

Guitar 1
|----------------------------------|---------------------------------|
|----------------------------------|---------------------------------|
|-----4----------------------------|-----4---------------------------|
|---4---4-----4-------7---7---5-h7-|---4---4-----4-------7---7---7---|
|-2---------5---5---5---5---5------|-2---------5---5---5---5---5---5-|
|---------0-------5----------------|---------0-------5---------------|

(Guitar 2)
|----------------------------------|-------------------------------0-|
|-0----2-3-2-0---0-----------------|-----------------------------3---|
|--------------2-----------------0-|---------------------------------|
|----------------------------------|-4---------------0---------------|
|----------------------------------|---------------------------------|
|----------------------------------|---------------------------------|

Guitar 1
|---------------------------------|----------------------------------|
|---------------------------------|----------------------------------|
|-----4---------------------------|-----4----------------------------|
|---4-------4-----7-----2-----4---|---4---4-----4-------7---7---5-h7-| 
|-2-------5-----5-----2-----4---4-|-2---------5---5---5---5---5------|
|-------0-----5-----2-----4-------|---------0-------5----------------|

(Guitar 2)
|-2-----------------0-------------|----------------------------------|
|-------0-----3-----------0-------|-0-----------2--------------------|
|-----------------------------2---|---------------p0-----------------|
|---------------------------------|------------------2---------------|
|---------------------------------|----------------------------------|
|---------------------------------|----------------------------------|

xxxxxxxxxxxxxxxxxxxxxxxxxxxxxxxxxxxxxxxxxxxxxxxxxxxxxxxxxxxxxxxxxxxxxx
CHORUS

Peilityyni	pinnan 		    alla 	   siella on sun
 Bm (sus2)	 A (sus2)	     G...	   F#...
|------------------2---------------|---------------------------------|
|-------2---3--------2---2---------|------------------7------3-------|
|-----4----------------4---4-2-----|-------7------------6------6-4-6-|
|---4--------------------------2---|-----7-----7-5--------4----------|
|-2--------------0-----------------|---5-----------------------------|
|----------------------------------|-5--------------4----------------|

salaisuus	sen tahtoisin	    tie-       taa
 Bm (sus2)	 A (sus2)	     G	       F#
|------------------2---------------|--------------------|
|-------2---3--------2---2---------|---------------(7)--|
|-----4----------------4---4-0-----|-------7--------6---|
|---4--------------------------2---|-----7-----7-5--4---|
|-2--------------0-----------------|---5------------4---|
|----------------------------------|-5--------------4---|

Peilityyni	pinnan 		    alta 	   sielta loytyy
 Bm (sus2)	 A (sus2)	     G...	   F#...
|------------------2---------------|---------------------------------|
|-------2---3--------2---2---------|------------------7------3-------|
|-----4----------------4---4-2-----|-------7------------6------6-4-6-|
|---4--------------------------2---|-----7-----7-5--------4----------|
|-2--------------0-----------------|---5-----------------------------|
|----------------------------------|-5--------------4----------------|


uponnut aarre	joka odot -     taa 			loytajaansa oikeaa

|-----------------------------|-------2----------2---------------------|
|-----------------------------|---------2----------2-------------------|
|-------7-----------------9---|-----4----------2-------------7-----6---|
|-----7---7-------------9---9-|---4----------4-------------7---7---4---|
|---5-----------------7-------|-2----------0-------------5---------4---|
|-5-----------------7---------|------------------------5-----------4---|

OUTRO
|----------------------------------|----------------------------------------|
|----------------------------------|----------------------------------------|
|-----4----------------------------|-----4----------------------------------|
|---4---4-----4-------7---7---5-h7-|---4---4-----4-------7---7---7-7-h9-7-5-|
|-2---------5---5---5---5---5------|-2---------5---5---5---5---5------------|
|---------0-------5----------------|---------0-------5----------------------|


FINE Bm (sus2)





Comments


Popular 51 Koodia tabs & chords
Puu Chords
Aavelaulajatar Tabs
Hayano Tabs
Lasimaailma Intro Tabs
Puu Ukulele


Song lyrics



↑ Back to top | Tablatures and chords are parodies/interpretations of the original songs. You may use it for private study, scholarship, research or language learning purposes only
© 2014 AZChords.com Contact us | Privacy policy | DMCA | Add/correct tabs | Request tabs | Top 50 tabs