» » »

To The Test Tabs (ver.1)

Artists:  A B C D E F G H I J K L M N O P Q R S T U V W X Y Z # 

To The Test Tabs (ver.1)

50 Lions
Rating:
5/5 (1 vote)

Hard to play? Try these video lessons and learn fast.
                Wikipedia page of 50 Lions:
They're signed to Resist records (AUS) and Washed Up Records.



Tuning: Drop D - DADGBE

(Grainy undefined sound - fades in from 0:19)

E|---------------------------------------|
B|---------------------------------------|
G|---------------------------------------|
D|-0-6-0-----------0-6-0-----------------| x4
A|-0-6-0-----------0-6-0-----6-5--3--5-6-|
D|-0-6-0-----------0-6-0-0-0-6-5--3--5-6-|

(High gain - 0:38)
E|---------------------------------------|
B|---------------------------------------|
G|---------------------------------------|
B|-0-6-0-----------0-6-0-----------------| x4
A|-0-6-0-----------0-6-0-----6-5--3--5-6-|
D|-0-6-0-----------0-6-0-0-0-6-5--3--5-6-|


(0:56)
E|--------------------------|
B|--------------------------|
G|--------------------------|
D|-0------------------------|
A|-0----------------------0-|
D|-0--0-0-0-0-0-0-0-0-0-0-0-|

(0:58)
E|-------------------------------------------------------------|
B|-------------------------------------------------------------|
G|-------------------------------------------------------------|
D|-0-----------------------------------------------------------| x3
A|-0--------------6-5-0-3--5--6-0------------------------------|
D|-0--0-0-0-0-0-0-6-5-0-3--5--6-0--0-0-0-0-0-0-0-0-0-0-0-0-0-0-|

(1:13)
E|-------------------------------------------------------------|
B|-------------------------------------------------------------|
G|-------------------------------------------------------------|
D|-0-------------------------------------------5-5-5-5-5-6-6-6-|
A|-0--------------6-5-0-3--5--6-0--------------5-5-5-5-5-6-6-6-|
D|-0--0-0-0-0-0-0-6-5-0-3--5--6-0--0-0-0-0-0-0-5-5-5-5-5-6-6-6-|

(1:18)
E|-----------------------------------------------------|
B|-----------------------------------------------------|
G|-----------------------------------------------------|
D|---0-------------------------0-----------------------|
A|---0----0-0-3-5-3-5--6-6-6---0----0-0-3-7-6-3--6-6-6-|
D|-0-0----0-0-3-5-3-5--6-6-6-0-0----0-0-3-7-6-3--6-6-6-|

E|------------------------------------------------------------|
B|------------------------------------------------------------|
G|------------------------------------------------------------|
D|---0--------------------------------------------------------|
A|---0----0-0-3-5-3-5--3-3-3-6-6-6-6-6-6-6--3-3-3-3-3-3-6-6-6-|
D|-0-0----0-0-3-5-3-5--3-3-3-6-6-6-6-6-6-6--3-3-3-3-3-3-6-6-6-|

E|-----------------------------------------------------|
B|-----------------------------------------------------|
G|-----------------------------------------------------|
D|---0-------------------------0-----------------------|
A|---0----0-0-3-5-3-5--6-6-6---0----0-0-3-7-6-3--6-6-6-|
D|-0-0----0-0-3-5-3-5--6-6-6-0-0----0-0-3-7-6-3--6-6-6-|

E|------------------------------------------------------------|
B|------------------------------------------------------------|
G|------------------------------------------------------------|
D|---0--------------------------------------------------------|
A|---0----0-0-3-5-3-5--3-3-3-6-6-6-6-6-6-6--3-3-3-3-3-3-3-3-3-|
D|-0-0----0-0-3-5-3-5--3-3-3-6-6-6-6-6-6-6--3-3-3-3-3-3-3-3-3-|

(1:38)
E|---------------------------------------|
B|---------------------------------------|
G|---------------------------------------|
D|-0-6-0-----------0-6-0-----------------| x3
A|-0-6-0-----------0-6-0-----6-5--3--5-6-|
D|-0-6-0-----------0-6-0-0-0-6-5--3--5-6-|

E|---------------------------------------------------------------------|
B|---------------------------------------------------------------------|
G|---------------------------------------------------------------------|
D|-0-6-0-----------0-6-0---------------------------------------------0-|
A|-0-6-0-----------0-6-0-----6-5--3--5----6-5-0-3--5----6-5-0-3--5-6-0-|
D|-0-6-0-----------0-6-0-0-0-6-5--3--5--0-6-5-0-3--5--0-6-5-0-3--5-6-0-|

(LET RING, then when 2:08)

E|-10-|
B|-10-|
G|-7--|
D|----|
A|----|
D|----|

(Downwards pick scr*pe on 2nd guitar at the same time - 2:11 )

E|------------------------------|
B|------------------------------|
G|------------------------------|
D|-0----------------------------|
A|-0---7-7-7-7-6-6-6-3--3-3-3---|
D|-0---7-7-7-7-6-6-6-3--3-3-3---|

(2:15)
E|---------------------------------|
B|---------------------------------|
G|---------------------------------|
D|---------------------------------| x7
A|---------------------------------|
D|-0-0-0-7-7-7-7-7-6-6-6-3-3-3-3-3-|

E|-----------------------------------|
B|-----------------------------------|
G|-----------------------------------|
D|---------------------------------0-|
A|---------------------------------0-|
D|-0-0-0-7-7-7-7-7-6-6-6-3-3-3-3-3-0-|

Enjoy!
            
Hard to play? Try these video lessons and learn fast. | Correct




comments powered by Disqus
↑ Back to top | Tablatures and chords are parodies/interpretations of the original songs. You may use it for private study, scholarship, research or language learning purposes only