>
 >
Time Is The Enemy

Time Is The Enemy Guitar Tabs

50 Lions - Time Is The Enemy chords, tabs, tablatures, lyrics

Guitar lessons | Add/correct | Request | Top 50 tabs Artists:  A B C D E F G H I J K L M N O P Q R S T U V W X Y Z 0-9

Time Is The Enemy Guitar Tabs – 50 Lions

CD, Sheet music, Poster

Do you like Time Is The Enemy? Share with your friends now
Tabs
Tuning: Drop D (DADGBe)

Part 1: x2

e|-------------------------------------------------------------|
B|-------------------------------------------------------------|
G|-------------------------------------------------------------|
D|-3h5p3--0--0-0-0-3h5--1--0-0-0-3h5p3--0--0-0-0-3h5--1--0-0-0-|
A|-3h5p3--0--0-0-0-3h5--1--0-0-0-3h5p3--0--0-0-0-3h5--1--0-0-0-|
D|-3h5p3--0--0-0-0-3h5--1--0-0-0-3h5p3--0--0-0-0-3h5--1--0-0-0-|
             . . .         . . .           . . .         . . .

e|-----------------------------------------------------------|
B|-----------------------------------------------------------|
G|-----------------------------------------------------------|
D|-3h5p3--0--0-0-0-3h5--1--0-0-0-3h5p3--0--0-0-0-3h5p3-0-1-1-|
A|-3h5p3--0--0-0-0-3h5--1--0-0-0-3h5p3--0--0-0-0-3h5p3-0-1-1-|
D|-3h5p3--0--0-0-0-3h5--1--0-0-0-3h5p3--0--0-0-0-3h5p3-0-1-1-|
             . . .         . . .           . . .       .


Part 2: x2

e|---------------------|
B|---------------------|
G|---------------------|
D|-3h5p3-0~----3h5p3-1-|
A|-3h5p3-0~----3h5p3-1-|
D|-3h5p3-0~----3h5p3-1-|


Part 3: 

Guitar 1
e|----------------------------------------------------------|
B|----------------------------------------------------------|
G|----------------------------------------------------------|
D|-0-0-0-0-0-0-3-5-0-6-5-0-3-0-0-0-0-0-0-0-0-0-0-0-0-0--0-0-|
A|-0-0-0-0-0-0-3-5-0-6-5-0-3-0-0-0-0-0-0-0-0-0-0-0-0-0--0-0-|
D|-0-0-0-0-0-0-3-5-0-6-5-0-3-0-0-0-0-0-0-0-0-0-0-0-0-0--0-0-|
     . . . . .     .     .     . . . . . . . . . . .    

e|--------------------------------------------------------|
B|--------------------------------------------------------|
G|-------------------------------------------------7--5-7-|
D|-0-0-0-0-0-3-5-0-6-5-0-3-0-0-0-0-0-0-0-0-0-0-0-0-7--5-7-|
A|-0-0-0-0-0-3-5-0-6-5-0-3-0-0-0-0-0-0-0-0-0-0-0-0-5--3-5-|
D|-0-0-0-0-0-3-5-0-6-5-0-3-0-0-0-0-0-0-0-0-0-0-0-0--------|
   . . . . .     .     .     . . . . . . . . . . .   

e|--------------------------------------------------------|
B|--------------------------------------------------------|
G|--------------------------------------------------------|
D|-0-0-0-0-0-3-5-0-6-5-0-3-0-0-0-0-0-0-0-0-0-0-0-0-0--0-0-|
A|-0-0-0-0-0-3-5-0-6-5-0-3-0-0-0-0-0-0-0-0-0-0-0-0-0--0-0-|
D|-0-0-0-0-0-3-5-0-6-5-0-3-0-0-0-0-0-0-0-0-0-0-0-0-0--0-0-|
   . . . . .     .     .     . . . . . . . . . . .


e|-----------------------------|
B|-----------------------------|
G|-----------------------------|
D|-0-0-0-0-0-0-3-5-0-6-5-0-3-0-|
A|-0-0-0-0-0-0-3-5-0-6-5-0-3-0-|
D|-0-0-0-0-0-0-3-5-0-6-5-0-3-0-|
     . . . . .     .     .   

Guitar 2
e|----|
B|----|
G|----|
D|-0~-| x4
A|-0~-|
D|-0~-|

Both Guitars
e|-----------------------------------|
B|-----------------------------------|
G|-----------------------------------|
D|-0-0-0-0-0-0-0-0-3-6-6-6-6-5-6-5-3-|
A|-0-0-0-0-0-0-0-0-3-6-6-6-6-5-6-5-3-|
D|-0-0-0-0-0-0-0-0-3-6-6-6-6-5-6-5-3-|
   . . . . . . . .


Part 4: (Slower tempo)

e|----------------------------------------------------------|
B|----------------------------------------------------------|
G|----------------------------------------------------------|
D|-0-0-0-0-0-0-3-5-0-6-5-0-3-0-0-0-0-0-0-0-0-0-0-0-0-0--0-0-|
A|-0-0-0-0-0-0-3-5-0-6-5-0-3-0-0-0-0-0-0-0-0-0-0-0-0-0--0-0-|
D|-0-0-0-0-0-0-3-5-0-6-5-0-3-0-0-0-0-0-0-0-0-0-0-0-0-0--0-0-|
     . . . . .     .     .     . . . . . . . . . . .    

e|--------------------------------------------------------|
B|--------------------------------------------------------|
G|-------------------------------------------------7--5-7-|
D|-0-0-0-0-0-3-5-0-6-5-0-3-0-0-0-0-0-0-0-0-0-0-0-0-7--5-7-|
A|-0-0-0-0-0-3-5-0-6-5-0-3-0-0-0-0-0-0-0-0-0-0-0-0-5--3-5-|
D|-0-0-0-0-0-3-5-0-6-5-0-3-0-0-0-0-0-0-0-0-0-0-0-0--------|
   . . . . .     .     .     . . . . . . . . . . .     

e|--------------------------------------------------------|
B|--------------------------------------------------------|
G|--------------------------------------------------------|
D|-0-0-0-0-0-3-5-0-6-5-0-3-0-0-0-0-0-0-0-0-0-0-0-0-0--0-0-|
A|-0-0-0-0-0-3-5-0-6-5-0-3-0-0-0-0-0-0-0-0-0-0-0-0-0--0-0-|
D|-0-0-0-0-0-3-5-0-6-5-0-3-0-0-0-0-0-0-0-0-0-0-0-0-0--0-0-|
   . . . . .     .     .     . . . . . . . . . . .

e|-------------------------------------------------------|
B|-------------------------------------------------------|
G|-------------------------------------------------------|
D|-0-0-0-0-0-3-5-0-6-5-0-3-6-6-6-6-6-6-6-6-6-6-6-6-6-6-6-|
A|-0-0-0-0-0-3-5-0-6-5-0-3-6-6-6-6-6-6-6-6-6-6-6-6-6-6-6-|
D|-0-0-0-0-0-3-5-0-6-5-0-3-6-6-6-6-6-6-6-6-6-6-6-6-6-6-6-|
   . . . . .     .     .  


Part 5: x5

Guitar 1
e|-------------------------------------------------------------|
B|-------------------------------------------------------------|
G|-12br-10~-12-10--------10-----------------12br-10~-12-10-----|
D|----------------12~-12----12-12--10-12-12----------------12~-|
A|-------------------------------------------------------------|
D|-------------------------------------------------------------|

Guitar 2
e|-------------------------------------------------------------|
B|-------------------------------------------------------------|
G|-------------------------------------------------------------|
D|--3~---7~--7--3--0~------------------------3~---7~--7--3--0~-|
A|--3~---7~--7--3--0~------------------------3~---7~--7--3--0~-|
D|--3~---7~--7--3--0~------------------------3~---7~--7--3--0~-|



************************************

| h   hammer-on
| p   pull-off
| ~   let it ring
| b   bend
| r   release
| .   palm mute

************************************





Comments


Popular 50 Lions tabs & chords
Instrumental Tabs
Lost In A Haze Tabs
To The Test Tabs
Wrong Choices Tabs


Song lyrics



↑ Back to top | Tablatures and chords are parodies/interpretations of the original songs. You may use it for private study, scholarship, research or language learning purposes only
© 2014 AZChords.com Contact us | Privacy policy | DMCA | Add/correct tabs | Request tabs | Top 50 tabs