» » »

50 Lions, Lost In A Haze Tabs (ver.1)

Artists:  A B C D E F G H I J K L M N O P Q R S T U V W X Y Z # 

Lost In A Haze Tabs (ver.1)

50 Lions Tabs
 Rating:
4/5 (4 votes)
Lost In A Haze lessons Tabs too difficult? Try these video lessons and learn fast
1
                Lost in the Haze
50 Lions
Time Is The Enemy
Mosh

Drop D tuning

------------------------------|
------------------------------|
------------------------------|
--3----5----1----3----1-------|
--3----5----1----3----1-------|
--3-00-5-00-1-00-3-00-1-000---|
    ..   ..   ..   ..   ...

------------------------------------------|
------------------------------------------|
------------------------------------------|
--000-----666-----000-----33----3----5-3--|
--000-----666-----000-----33----3----5-3--|
--000-----666-----000-----33-00-3-00-5-3--|
                             ..   ..

------------------------------------------|
------------------------------------------|
------------------------------------------|
--000-----666-----000-----33----3----5-3--|
--000-----666-----000-----33----3----5-3--|
--000-----666-----000-----33-00-3-00-5-3--|
                             ..   ..

----------------------------------------------------------|
----------------------------------------------------------|
----------------------------------------------------------|
--000-----666-----000-----33----3----5----1----3----1-----|
--000-----666-----000-----33----3----5----1----3----1-----|
--000-----666-----000-----33-00-3-00-5-00-1-00-3-00-1-000-|
                   .         ..   ..   ..   ..   ..   ...

---------------------------------------------|
---------------------------------------------|
----------------------------5/7---8\7--------|
--1-0-------1-0-------1-0--------------------|
--1-0-------1-0-------1-0---3/5---6\5--------|
--1-0-00000-1-0-00000-1-0-0-----0-----00000--|
      .....     .....     .     .     .....

^ REPEAT ABOVE A FEW TIMES ^

------------------------------------|
------------------------------------|
---------7\5\3----------------------|
--00---------------55-----6---------|
--00-----5\3\1-----55-----6---------|
--00-000-0~~~~-000-55-555-6-000000--|
     ...       ...    ...   ......

--------------------------|
--------------------------|
--------------------------|
--000-----666-----060-----|
--000-----666-----060-----|
--000-----666-----060-----|
            
Submit corrections

comments powered by Disqus
↑ Back to top | 50 Lions Tabs for Lost In A Haze. Lyrics for acoustic guitar and electric guitar. 1 Tablatures and chords are parodies/interpretations of the original songs. You may use it for private study, scholarship, research or language learning purposes only