» » »

50 Cent, In Da Club Bass tabs (ver.2)

Artists:  A B C D E F G H I J K L M N O P Q R S T U V W X Y Z # 

In Da Club Bass tabs (ver.2)

50 Cent Tabs
 Rating:
4/5 (4 votes)
In Da Club lessons Tabs too difficult? Try these video lessons and learn fast
                ------------------------------------------------------------------
			     In Da Club - Fitty Cent
------------------------------------------------------------------


This is 100% correct.  It's hard to hear
The bass because it's so low but this is it.  You have to play this on a 5 string, a 4
ain't gonna cut it. I you have to play it on a 4 banger at least tune the E string to D
re-adjust the tab. There are two different lines in this song, The main riff plays most 
the song with the alternate coming in every so often. Basically the notes are E D# F# E
C# for the first riff. E D# F# E B C# for the second.

Tuning:

   Main Riff
   On two strings             or on one string
G|--------------------------|-------------------------------------------|
D|--------------------------|-------------------------------------------|
A|--------------------------|-------------------------------------------|
E|---0----2---0----0--------|-------------------------------------------|
B|-----4---------------2----|---5-4--7-5--5-2---------------------------|

  Alternate Riff
G|----------------------------------------------------------------------|
D|----------------------------------------------------------------------|
A|----------------------------------------------------------------------|
E|---0----2---0---------------------------------------------------------|
B|-----4-----------0---2------------------------------------------------|


===============================================================================
            
Submit corrections

comments powered by Disqus
↑ Back to top | 50 Cent Bass for In Da Club. Lyrics for acoustic guitar and electric guitar. Tablatures and chords are parodies/interpretations of the original songs. You may use it for private study, scholarship, research or language learning purposes only