» » »

If I Can't Bass tabs (ver.1)

Artists:  A B C D E F G H I J K L M N O P Q R S T U V W X Y Z # 

If I Can't Bass tabs (ver.1)

50 Cent
Rating:
0/5 (0 votes)

Tabs too difficult? Try these video lessons and learn fast.
                50 cent 
if i cant

verse
G--------------------------------------
D------5---7---5-----------------------
A--5-7---7---7---7---------------------
E--------------------------------------

chorus
G--------------------------------------
D------5---7---5-----------------------
A--5-7---7---7---7---------------------
E--------------------------------------
thats the whole song
            
Tabs too difficult? Try these video lessons and learn fast.




comments powered by Disqus
↑ Back to top | Tablatures and chords are parodies/interpretations of the original songs. You may use it for private study, scholarship, research or language learning purposes only