» » »

50 Cent, How We Do Tabs (ver.1)

Artists:  A B C D E F G H I J K L M N O P Q R S T U V W X Y Z # 

How We Do Tabs (ver.1)

50 Cent Tabs
 Rating:
3/5 (6 votes)
How We Do lessons Tabs too difficult? Try these video lessons and learn fast
                -------------------------------------------------------------------------------
-------------------------------------------------------------------------------

this is a gay song by someone who i think really sucks

e|-----12--12-----------------------------------------------------------------------|
B|-------------12---12---13---13--13------------------------------------------------|
G|------------------------------------13--13----------------------------------------|
D|-----------------------------------------------15---------------------------------|
A|----------------------------------------------------------------------------------|
E|----------------------------------------------------------------------------------|
            
Submit corrections

comments powered by Disqus
↑ Back to top | 50 Cent Tabs for How We Do. Lyrics for acoustic guitar and electric guitar. Tablatures and chords are parodies/interpretations of the original songs. You may use it for private study, scholarship, research or language learning purposes only