» » »

Hate It Or Love It Bass tabs (ver.1)

Artists:  A B C D E F G H I J K L M N O P Q R S T U V W X Y Z # 

Hate It Or Love It Bass tabs (ver.1)

50 Cent
Rating:
1/5 (4 votes)

Hard to play? Try these video lessons and learn fast.
                It's a pretty simple song with few variations. Don't know if I got the timing wrong, but 
a pretty easy song with a sweet bassline, you'll figure it out just listen to the song!

These riffs are pretty much played throughout the entire song:

Riff 1
G|------------------------------------------------|
D|------------------------------------------------|
A|7--7--7-----7--7--7-6--4--4--4------4--4--4--4--|
E|--------7h9--------------------4h6--------------|

G|------------------------------------------------|
D|------------------------------------------------|
A|------------------------------------------------|
E|4--4--4--4--4--4--4--4--4--4--4--4--4--4--4--4--|

Riff 2
G|------------------------------------------------|
D|------------------------------------------------|
A|7--7--7-----7--7--7-6--4--4--4--4--4--4--4--4---|
E|--------7h9---------------------------------*---|hold the note for a while

G|------------------------------------------------|
D|------------------------------------------------|
A|------------------------------------------------|
E|4--4--4--4--4--4--4--4--4--4--4--4--4--4--4--4--|

Riff 3
G|------------------------------------------------|
D|------------------------------------------------|
A|7--7--7-----7--7--7-6--4--4--4------4--4--4--4--|
E|--------5h7--------------------4h6--------------|

G|------------------------------------------------|
D|------------------------------------------------|
A|------------------------------------------------|
E|4--4--4--4--4--4--4--4--4--4--4--4--4--4--4--4--|
            
Hard to play? Try these video lessons and learn fast. | Correct




comments powered by Disqus
↑ Back to top | Tablatures and chords are parodies/interpretations of the original songs. You may use it for private study, scholarship, research or language learning purposes only