>
 >
Pra Te Ter

Pra Te Ter Guitar Tabs

4 Taste - Pra Te Ter chords, tabs, tablatures, lyrics

Guitar lessons | Add/correct | Request | Top 50 tabs Artists:  A B C D E F G H I J K L M N O P Q R S T U V W X Y Z 0-9

Pra Te Ter Guitar Tabs – 4 Taste

CD, Sheet music, Poster

Do you like Pra Te Ter? Share with your friends now
ChordsTabsUkulele
4Taste
P'ra Te Ter

Aqui a tab da musica...


Inicio

E----------------------------------------------|
B-11-11-11-10----11-11-10----10-11-13-11-10----|
G-------------10----------10----------------10-|
D----------------------------------------------|
A----------------------------------------------|
E----------------------------------------------|

----------------------------------------------|
-11-11-11-10----11-11-10----10-11-13-11-10----|
-------------10----------10----------------10-|
----------------------------------------------|
----------------------------------------------|
----------------------------------------------|

----------------------------------------------13-13-13-13-13-13-13-13-13-|
-11-11-11-10----11-11-10----10-11-13-11-10-------------------------------|
-------------10----------10----------------10----------------------------|
-------------------------------------------------------------------------|
-------------------------------------------------------------------------|
-------------------------------------------------------------------------|

Part

E---------------------------------------------------|
B---------------------------------------------------|
G--------8------10---10------------8------10-----10-|
D-8------8------10---10-----8------8------10-----10-|
A-8--6-6-6--8-8-8--8-8------8--6-6-6--8-8-8--8-8-8--|
E-6---------------------6-6-6-----------------------|

Pré refrão (contar quantas vezes tens que tocar cada ''powercord'')

E------------------------------|
B------------------------------|
G----------8---------------8---|
D--5---3---8---3---3---3---8---|
A--5---3---6---3---3---3---6---|
E--3---1-------1---5---1-------|

Refrão (contar como em cima)

2x
E---------------------------|
B---------------------------|
G-3-----------8---3-------8-|
D-3---3---5---8---3---3---8-|
A-1---3---5---6---1---3---6-|
E-----1---3-----------1-----|

Depois tocas:

Part
Pré refrão
2x Refrão

Solo:

E--------------------------------------------------------|
B----------------------------------------------6---------|
G-10---7-8-7-10---7-8-7-10--10-8-7-------5---7---7-5-----|
D----------------------------------10--8---8---------8-5-|
A--------------------------------------------------------|
E--------------------------------------------------------|

---------------------------------------------------------------------|
--15--12-13-12--------12-13-15--15-13-12--------------------------15-|
---------------14--14--------------------12--12-14-16-16-16-14-12----|
---------------------------------------------------------------------|
---------------------------------------------------------------------|
---------------------------------------------------------------------|

-12-12-12-14-14-14-16-16-16-18-18-18-19--|
-----------------------------------------|
-----------------------------------------|
-----------------------------------------|
-----------------------------------------|
-----------------------------------------|
depois ainda
3x Refrão
Inicio

Prontos!!! Já sabes tocar a P'ra Te Ter dos 4Taste!!!!





Comments


Popular 4 Taste tabs & chords
Diz-me Que Sim Estou Aqui Chords
Pra Te Ter Chords
So Tu Podes Alcanar Chords
So Tu Podes Alcanar 1 Chords
So Tu Podes Alcanar 2 Chords
A Tua Vez De Brilhar Tabs
Desta Vez Eu Nao Te Vou Perdoar Tabs
Mas Tavlez Tabs
Diz-me Que Sim Estou Aqui Ukulele
Pra Te Ter Ukulele


Song lyrics



↑ Back to top | Tablatures and chords are parodies/interpretations of the original songs. You may use it for private study, scholarship, research or language learning purposes only
© 2014 AZChords.com Contact us | Privacy policy | DMCA | Add/correct tabs | Request tabs | Top 50 tabs