» » »

Desta Vez Eu Nao Te Vou Perdoar Tabs (ver.1)

Artists:  A B C D E F G H I J K L M N O P Q R S T U V W X Y Z # 

Desta Vez Eu Nao Te Vou Perdoar Tabs (ver.1)

4 Taste
Rating:
0/5 (0 votes)

Hard to play? Try these video lessons and learn fast.
                Desta vez eu nao te vou perdoar (As folhas já nao caiem)

Lyrics and Music by 4Taste


Intro 
E--------------------|
B--------------------|
G-----------2-2-2----|
D-7-(X8)----2-2-2----|
A-----------0-0-0----|
E--------------------|
            * * *
"(As folhas já nao caiem...)"


  A        E            F#    D       A        E         D
E----------------------------------|---------------------------------------------------|
B----------------------------------|-------------------------5-5-5--7-7-7--10-10-9-10--|
G-----------------------------7777-|---------------------7-7---------------------------|
D-----------------------4444--7777-|---------------------------------------------------|
A-4-44-5-4--2-22-4-2-0--4444--5555-|-4-44-5-4--2-22-4-2--------------------------------|
E-----------------------2222-------|---------------------------------------------------|
                         ***   ***

Verso

  A         E  F# D
E--------------------|
B--------------------|
G-----------------7--|   X2
D-77777777--2--4--7--|
A-77777777--2--4--5--|
E-55555555--0--2-----|
  ******** (seguir o ritmo) 


Pre-Refrao

  D  E    D      E
E-----------------------|
B-----------------------|
G-7--9----7-7-7--9-9-9--|  X2
D-7--9----7-7-7--9-9-9--|  
A-5--7----5-5-5--7-7-7--|
E-----------------------|


Refrao

E-------------|------------|
B-------------|------------|
G----------7--|-------7----|  X2
D-7--2--4--7--|-7--2--7----|
A-7--2--4--5--|-7--2--5----|
E-5--0--2-----|-5--0-------|

Verso
Pre-Refrao
Refrao

E-----------------------|
B-----------------------|
G-9-9---7-7---9-9---7-7-|
D-9-9---7-7---9-9---7-7-|
A-7-7---5-5---7-7---5-5-|
E-----------------------|

E----------------------------------------------------------------|
B----------------------------------------------------------------|
G----------------------------------------------------------------|  X2
D-7-7-7-9-7-6-7----7-7-7-9-7-6-7---7-7-7-9-7-6-7---7-7-7-6-4-6-7-|
A----------------------------------------------------------------|
E----------------------------------------------------------------|

Refrao X2
            
Hard to play? Try these video lessons and learn fast. | Correct




comments powered by Disqus
↑ Back to top | Tablatures and chords are parodies/interpretations of the original songs. You may use it for private study, scholarship, research or language learning purposes only