» » »

4 Taste, A Tua Vez De Brilhar Tabs (ver.1)

Artists:  A B C D E F G H I J K L M N O P Q R S T U V W X Y Z # 

A Tua Vez De Brilhar Tabs (ver.1)

4 Taste Tabs
Rating:
0/5 (0 votes)
A Tua Vez De Brilhar lessons Tabs too difficult? Try these video lessons and learn fast
                A tua vez de brilhar

Lyrics and Music by 4Taste


Intro 
E--------------------------------|
B--------------------------------|
G--------------------------------|
D-2-(X16)-6-(x5)-7-6-4-6-4-2-1-2-|
A--------------------------------|
E--------------------------------|


Verso
E-------------------------------------------------|
B-------------------------------------------------|
G-------7-----9-----7--9--------7-----9-----7--9--|
D-7-----7-----9-----7--9--7-----7-----9-----7--9--|
A-7-----5-----7-----5--7--7-----5-----7-----5--7--|
E-5-----------------------5-----------------------|

E--------------------------------------------------------|
B--------------------------------------------------------|
G-------------------7------7------9------9------7------9-|  X2
D-----7------7------7------7------9------9------7------9-|
A-----7------7--5-5----5-5----7-7----7-7----5-5----7-7---|
E-5-5----5-5---------------------------------------------|
  * *    * *    * *    * *    * *    * *    * *    * *


Pre-Refrao
E-------------------------------------------------|
B-------------------------------------------------|
G-7-------------------7-------------------9-9-9~--|  X2
D-7----7----4----2----7----7----4----2----9-9-9~\-|  
A-5----7----4----2----5----7----4----2----7-7-7~\-|
E------5----2----0---------5----2----0----------\-|


Refrao
E-------------------------------------------------|
B-------------------------------------------------|
G-7-7---------------------7-7---------------------|  X4
D-7-7---7-7---4-4---2-2---7-7---7-7---4-4---2-2---|
A-5-5---7-7---4-4---2-2---5-5---7-7---4-4---2-2---|
E-------5-5---2-2---0-0---------5-5---2-2---0-0---|


Pos-Refrao
E-----------------|
B-----------------|
G-----------------|
D-2-(X8)-6-(X5)-2-|
A-----------------|
E-----------------|


Verso
Pos-Verso
Pre-Refrao
Refrao


E--------------------------------|
B--------------------------------|
G--------9-9---7-7---------------|   X2
D--7-7---9-9---7-7---4-4---2-2---|
A--7-7---7-7---5-5---4-4---2-2---|
E--5-5---------------2-2---0-0---|

E------12--9----------9-----(9)-|
B--10---------10--12-----10-----|   X4
G-------------------------------|
D-------------------------------|
A-------------------------------|
E-------------------------------|


Refrao X2


E------------------------|
B------------------------|
G--7~--------------------|
D--7~--------------------|
A--5~--------------------|
E------------------------|



Não está perfeita, mas ja da pra tocar.
            
Submit corrections

comments powered by Disqus
↑ Back to top | 4 Taste Tabs for A Tua Vez De Brilhar. Lyrics for acoustic guitar and electric guitar. Tablatures and chords are parodies/interpretations of the original songs. You may use it for private study, scholarship, research or language learning purposes only