» » »

Jack The Lad Bass tabs (ver.1)

Artists:  A B C D E F G H I J K L M N O P Q R S T U V W X Y Z # 

Jack The Lad Bass tabs (ver.1)

4 Skins
Rating:
5/5 (1 vote)

Hard to play? Try these video lessons and learn fast.
                By The 4-Skins

Verse
--------------------------------------------------------|
--------------------------------------------------------|
--------------33-333-33-33-2-11-111-11-11---------------|
11-111-11-11-------------------------------33-333-33-33-|

Chorus

-------------------------------------|
-------------------------------------|
1-0------11-0------1-0------3-333333-|
----3-1-------3-1------3-1-----------|

Interlude

---------|
---------|
111111111
            
Hard to play? Try these video lessons and learn fast. | Correct




comments powered by Disqus
↑ Back to top | Tablatures and chords are parodies/interpretations of the original songs. You may use it for private study, scholarship, research or language learning purposes only