» » »

Clockwork Skinhead Bass tabs (ver.1)

Artists:  A B C D E F G H I J K L M N O P Q R S T U V W X Y Z # 

Clockwork Skinhead Bass tabs (ver.1)

4 Skins
Rating:
0/5 (0 votes)

Hard to play? Try these video lessons and learn fast.
                Intro/Verse
G------------------------------------------------
D------------------------------------------------
A-3-3333333----------3-3333333-------------------
E-----------3-3333333---------3-3333333----------

Last Line Before Chorus
G------------------------------------------------
D------------------------------------------------
A------------------------------------------------
E--1-1111111-3-3333333---------------------------

Chorus
G------------------------------------------------
D------------------------------------------------
A--1-1-1-----------------------------------------
E-------1-1-1-3-3-3-1-3--------------------------

Bridge
G------------------------------------------------
D------------------------------------------------
A--111---3-333-----------------------------------
E-----1-1----------------------------------------

Listen to the song for when to play them.
            
Hard to play? Try these video lessons and learn fast. | Correct




comments powered by Disqus
↑ Back to top | Tablatures and chords are parodies/interpretations of the original songs. You may use it for private study, scholarship, research or language learning purposes only