» » »

What's Up Bass tabs (ver.3)

Artists:  A B C D E F G H I J K L M N O P Q R S T U V W X Y Z # 

What's Up Bass tabs (ver.3)

4 Non Blondes
Rating:
3/5 (2 votes)

Hard to play? Try these video lessons and learn fast.
                4 non blondes - What's Up
Bass tab

This song repeats A Bm (standard B on bass) D and A over and over again.  
It is a good improvising song - sounds fine as long as you make sure you hit the 
A, B and D notes in the right places.

*hold note out
**pluck notes hard

INTRO
G|--------|
D|--------|
A|--12/---|
E|--------|

VERSES (here are some options - mix and match or make up  your own similar pattern)
G|------------------------------------|
D|------------------------------------|
A|---------2*----2/5*-----0-5-0-5-----|
E|---5*---------------------------5*--|

G|-------------------------------------------|
D|-------------------------------------------|
A|---------2*----2/5*-----0-5-0-5------------|
E|---5*---------------------------5*-5-4-5-4-|

G|----------------------------------------------|
D|----------------------------------------------|
A|-----------2*----2/5*-----0-5-0-5-------------|
E|---5* 5/2--------------------------5*-5-2-5-2-|

"And so I wake in the morning..."

G|------------------------------------------------|
D|------------------------------------------------|
A|--------5/4**---2-0-2-0----2/5*-----0-5-0-5-----|
E|---5-5--------------------------------------5*--|



"And I cry... oh my god do I cry..."
G|------------------------------------------------------------------|
D|------------------------------------------------------------------|
A|----------5/4**--------2*---5/4**---2-0-2-0-2/5*----0-5-0-5-------|
E|-5-5-0-0--------5p4h5----------------------------------------5*---|


Just stick to these notes as you improvise and it'll sound fine:

A B C# D E F# G#
            
Hard to play? Try these video lessons and learn fast. | Correct




comments powered by Disqus
↑ Back to top | Tablatures and chords are parodies/interpretations of the original songs. You may use it for private study, scholarship, research or language learning purposes only