» » »

4lyn, Whooo Tabs (ver.1)

Artists:  A B C D E F G H I J K L M N O P Q R S T U V W X Y Z # 

Whooo Tabs (ver.1)

4lyn Tabs
Rating:
5/5 (1 vote)
Whooo lessons Tabs too difficult? Try these video lessons and learn fast
                Artistv:4Lyn
Tuning: drop B(B,fis,B,E,gis,cis)


Think it´s 100% correct.Update: I put in the original version instead the Soccer slam 


Intro

clean w/wah
|---------------------------------------------------------|
|---------------------------------------------------------|
|-7-x-7--7-7--x-7--7-7-x-x--------------------------------|  play 4 times
|-7-x-7--7-7--x-7--7-7-x-x--------------------------------|  listen to the
|-5-x-5--5-5--x-5--5-5-x-x--------------------------------|  song to get the
|---------------------------------------------------------|  timing


Verse

clean w/wah
|---------------------------------------------------------|
|---------------------------------------------------------|
|-7-x-7--7-7--x-7--7-7-x-x--7-x-7--7-7--x-7--7-7-x-x------|  listen again
|-7-x-7--7-7--x-7--7-7-x-x--7-x-7--7-7--x-7--7-7-x-x------|  for the timing
|-5-x-5--5-5--x-5--5-5-x-x--5-x-5--5-5--x-5--5-5-x-x------|
|---------------------------------------------------------|
  Yo I park my ride on the left side.....

|---------------------------------------------------------|
|---------------------------------------------------------|
|-7-x-7--7-7--x-7--7-7--x-x--7-x-7--7-7--x-7--7-7-x-x-----|
|-8-x-8--8-8--x-8--8-8--x-x--8-x-8--8-8--x-8--8-8-x-x-----|
|-5-x-5--5-5--x-5--5-5--x-x--5-x-5--5-5--x-5--5-5-x-x-----|
|---------------------------------------------------------|


Chorus

heavy distortion
|---------------------------------------------------------|
|-----------------------------------------15~~~-----------|
|-----------------------------------------15~~~-----------|
|-0-------0--------------0-------0--------15~~~-----------|
|-0-15-15-0-0-0-0--------0-15-15-0-0-0-0------------------|
|-0-15-15-0-0-0-0--------0-15-15-0-0-0-0------------------|
                Whoooo!!            Ey yo this chick is the bomb yall!!


|---------------------------------------------------------|
|-----------------------------------------15~~~-----------|
|-----------------------------------------15~~~-----------|
|-0-------0-------------0-------0---------15~~~-----------|
|-0-15-15-0-0-0-0-------0-15-15-0-0-0-0-------------------|
|-0-15-15-0-0-0-0-------0-15-15-0-0-0-0-------------------|
                Whoooo!!


Verse 2

clean w/wah
|---------------------------------------------------------|
|---------------------------------------------------------|
|-7-x-7--7-7--x-7--7-7-x-x--7-x-7--7-7--x-7--7-7-x-x------|  listen again
|-7-x-7--7-7--x-7--7-7-x-x--7-x-7--7-7--x-7--7-7-x-x------|  for the timing
|-5-x-5--5-5--x-5--5-5-x-x--5-x-5--5-5--x-5--5-5-x-x------|
|---------------------------------------------------------|
 Somebody tell me what her name is...

|---------------------------------------------------------|
|---------------------------------------------------------|
|-7-x-7--7-7--x-7--7-7--x-x--7-x-7--7-7--x-7--7-7-x-x-----|
|-8-x-8--8-8--x-8--8-8--x-x--8-x-8--8-8--x-8--8-8-x-x-----|
|-5-x-5--5-5--x-5--5-5--x-x--5-x-5--5-5--x-5--5-5-x-x-----|
|---------------------------------------------------------|


Chorus

|---------------------------------------------------------|
|-----------------------------------------15~~~-----------|
|-----------------------------------------15~~~-----------|
|-0-------0--------------0-------0--------15~~~-----------|
|-0-15-15-0-0-0-0--------0-15-15-0-0-0-0------------------|
|-0-15-15-0-0-0-0--------0-15-15-0-0-0-0------------------|
                Whoooo!!            Ey yo this chick is the bomb yall!!


|---------------------------------------------------------|
|-----------------------------------------15~~~-----------|
|-----------------------------------------15~~~-----------|
|-0-------0-------------0-------0---------15~~~-----------|
|-0-15-15-0-0-0-0-------0-15-15-0-0-0-0-------------------|
|-0-15-15-0-0-0-0-------0-15-15-0-0-0-0-------------------|
                Whoooo!!


After 2nd Chorus

|-------------0~~~~~~~--|
|-------------3~~~~~~~--|
|-------------2~~~~~~~--|
|-0~~~~~~~~---0~~~~~~~--|
|-0~~~~~~~~---0~~~~~~~--|
|-0~~~~~~~~---0~~~~~~~--|


Then the bass (deeeeee!) plays this(with light distortion)

B|-1p0-0-0--0-1p0-1p0-0-0--0-1p0-1p0-0-0--0-1p0-1p0-0-0---|


Play couple of times. The guitar(Russo!)
makes some noisy stuff.

Then

|-------------------------------------------------|
|-------------------------------------------------|
|-------------------------------------------------|
|-------------------------------------------------|
|-//////////////////////-Pickslide!!!!!-----------|
|-//////////////////////////////////--------------|stop


Braz`s whispering part
"Ronnie and his chick on their way....."

"ROCK `N ROLL!!!!!!!!"


BREAKDOWN!!

crank up the volume
|-------------------------------------------------------|
|-------------------------------------------------------|
|-------------------------------------------------------|
|-------------------------------------------------------| x2
|-1p0-0--0-1p0-1p0-0-0--0-1p0-1p0-0-0--0-1p0-1p0-0-15~~~|
|-1p0-0--0-1p0-1p0-0-0--0-1p0-1p0-0-0--0-1p0-1p0-0-15~~~|


|---------------------------------------------------------------------|
|---------------------------------------------------------------------|
|---------------------------------------------------------------------|
|---------------------------------------------------------------------|
|-13p12-12--12-13p12-13p12-12-12-13p12-13p12-12-12-13p12-13p12-12-15--|
|-13p12-12--12-13p12-13p12-12-12-13p12-12p12-12-12-13p12-13p12-12-15--|


|------------------------------------------------------------------------|
|------------------------------------------------------------------------|
|------------------------------------------------------------------------|
|------------------------------------------------------------------------|
|-13p12-12--12-13p12-13p12-12-12-----------------------------------------|
|-13p12-12--12-13p12-13p12-12-12-13p12-12b-13p12-12b-13p12-12b-13p12-12b-|


Chorus

|---------------------------------------------------------|
|-----------------------------------------15~~~-----------|
|-----------------------------------------15~~~-----------|
|-0-------0--------------0-------0--------15~~~-----------|
|-0-15-15-0-0-0-0--------0-15-15-0-0-0-0------------------|
|-0-15-15-0-0-0-0--------0-15-15-0-0-0-0------------------|
                Whoooo!!            Ey yo this chick is the bomb yall!!


|------------------------------------------------------|
|------------------------------------------------------|
|------------------------------------------------------|
|-0-------0-------------0-------0---0-0-0-0-0-0-0-0-0--|
|-0-15-15-0-0-0-0-------0-15-15-0---0-0-0-0-0-0-0-0-0--|
|-0-15-15-0-0-0-0-------0-15-15-0---0-0-0-0-0-0-0-0-0--|
                Whoooo!!            . . . . . . . . .


|---------------------------------------------------------|
|-----------------------------------------15~~~-----------|
|-----------------------------------------15~~~-----------|
|-0-------0--------------0-------0--------15~~~-----------|
|-0-15-15-0-0-0-0--------0-15-15-0-0-0-0------------------|
|-0-15-15-0-0-0-0--------0-15-15-0-0-0-0------------------|
                Whoooo!!            Ey yo this chick is the bomb!!


|-----------------------------------|
|-----------------------------------|
|-----------------------------------|
|-0-------0-------------0-------0---|
|-0-15-15-0-0-0-0-------0-15-15-0---|
|-0-15-15-0-0-0-0-------0-15-15-0---|
                Whoooo!!


|------------------------------------------------------------|
|------------------------------------------------------------|
|------------------------------------------------------------|
|-0-0-0-0-0-0-0-0--------------------------------------------|
|-0-0-0-0-0-0-0-0--------------------------------------------|
|-0-0-0-0-0-0-0-0--13p12-0-0-13p12-0-0-13p12-0-0-13p12-13p12-|
  . . . . . . . .
  The Bomb,the Bomb,The Boooooooooomb!!!


|------------------|
|------------------|
|------------------|
|-0-------0--------|
|-0-15-15-0-0-0-0--|
|-0-15-15-0-0-0-0--|
DONE!!!

Yo! I park my ride on the left side, i´m feeling kind a-ight ´cuz i know
that my stupid ass is gonna get drunk tonight.
A quick view to the backyard, my boys are all there.
So high 5´s everywhere. A well known smell
I wanna know ´cuz my brain said so.
So I followed the fog until the heart of the party
chilli palmer with a blunt and a glass of bacardi.
Yo, it´s all good but something is missing
i don´t know what it is and i have to go p**sing.
But there´s somebody knocking at the door
and right about now i´m looking at a girl that i never saw before.
Right about now i start to stare
oh f**k it my eyes are ready see her bare and Kane says:
"Ronnie Braz, what you´re gonna do?"
I better go and relax and get myself another brew!!

Whooo!
Hey yo, this chick is the bomb, yall!
Whooo!
Whooo!
Hey yo, this chick is the bomb!
Whooo!


Somebody tell me what her name is.
Somebody tell me what the number of this dame is.
Does she got a man or is she creeping on a solo tip.
Yo, take a look at her hips. I try to lick my lips.
But my tongue seems to weigh a ton
and i said to myself you´ve got to talk to her ron, yo.
It´s easier said than done but i´m a do it
it´s a hard job so i´m a go through it.
"So come on baby we gotta talk
it´s too noisy in here so let´s go outside for a walk"
My homies smiled as we passed
and Kane said: "Did a nice job Mr. Braz!"
We´re strictly headin´ for my car
and thank the holy lord that my way ain´t that far.
Cuz Mr. Braz goes on a mission
and i will tell this girl what it´s like to go fishing!!

Whooo!
Hey yo, this chick is the bomb, yall!
Whooo!
Whooo!
Hey yo, this chick is the bomb!
Whooo!

Ronnie and this chick on the way to knock boots
two wicked minds on their way to get loose.
One load of sperm´s getting out of control
Rock´n´Roll!!!!!!!!!!

Whooo!
Hey yo, this chick is the bomb, yall!
Whooo!
Whooo!
Hey yo, this chick is the bomb!
Whooo!

the bomb
the bomb
the bomb


Hope you enjoy!!!  4Lyn 4ever!!!!!!!!
            

comments powered by Disqus
↑ Back to top | 4lyn Tabs for Whooo. Lyrics for acoustic guitar and electric guitar. Tablatures and chords are parodies/interpretations of the original songs. You may use it for private study, scholarship, research or language learning purposes only