» » »

4lyn, Pearls & Beauty Bass tabs (ver.1)

Artists:  A B C D E F G H I J K L M N O P Q R S T U V W X Y Z # 

Pearls & Beauty Bass tabs (ver.1)

4lyn Tabs
 Rating:
4/5 (4 votes)
Pearls & Beauty lessons Tabs too difficult? Try these video lessons and learn fast
                bass tab: pearls & beauty

/ = slide up
! = achteln


 (intro)
G|-11---11---11---11---11---11---11---11---|-9----9----9----9----9----9----9----9---|
D|-11---11---11---11---11---11---11---11---|-11---11---11---11---11---11---11---11--|
A|-----------------------------------------|----------------------------------------|
E|----9----9----9----9----9----9----9----0-|----0----0----0----0----0----0----0----0|
B|-----------------------------------------|----------------------------------------|


 (heavy part)
G|-----------------|-----------------|-----------------|---------------|
D|-----------------|-----------------|-----------------|---------------|
A|-----------------|-----------------|-4---------------|---------------|
E|-----------------|-----------4-7-4-|-----------------|---------4-7-7-|
B|-2-0-2-0-2-0-5-4-|-5-4-5-4-5-------|---0-2-0-2-0-5-4-|-5-4-5-4-------|


 (strophe 1. hälfte)
G|-11---11---11---11---11---11---11---11---|-9----9----9----9----9----9----9----9---|
D|-11---11---11---11---11---11---11---11---|-11---11---11---11---11---11---11---11--|
A|-----------------------------------------|----------------------------------------|
E|----9----9----9----9----9----9----9----0-|----0----0----0----0----0----0----0----0|
B|-----------------------------------------|----------------------------------------|
  <-----------------------------wiederholen-/-repeat------------------------------->


 (strophe 2. hälfte)
G|-11---11---11---11---13---13---13---13---|-9----9----9----9----13---13---13---13--|
D|-11---11---11---11---11---11---11---11---|-11---11---11---11---11---11---11---11--|
A|-----------------------------------------|----------------------------------------|
E|----9----9----9----9----9----9----9----0-|----0----0----0----0----0----0----0----0|
B|-----------------------------------------|----------------------------------------|
  <-----------------------------wiederholen-/-repeat------------------------------->


 (bridge zum 1. refrain)
G|-9/11---9-|-----------------|-9/11------|-11---11-9--|
D|----------|-----------------|--------11-|-11---11-11-|
A|-7/9----7-|---------7-7-----|-7/9-------|------------|
E|------0---|-----4-4-----4-4-|------0-9--|----9-------|
B|----------|-5-5-------------|-----------|------------|

G|-9/11---9-9/11---11-9/11------|-----------------|
D|---------------------------11-|-----------------|
A|-7/9----7-7/9----9--7/9-------|---------4-4-----|
E|------0--------0---------0-9--|-----4-4-----4-4-|
B|------------------------------|-2-2-------------|


 (refrain)
G|---------|----|---------|----|---------|----|----|-----------------|---------|
D|---------|----|---------|----|---------|----|----|-----------------|---------|
A|---------|----|---------|----|---------|----|----|-----------------|---------|
E|-0-2-2-0-|-0!-|-0-2-2---|----|-0-2-2-0-|-0!-|-2!-|-------------4-4-|-----9-9-|
B|---------|----|-------2-|-2!-|---------|----|----|-2-2-7-7-5-5-----|-2-2-----|
  <--------------------------wiederholen-/-repeat---------------------------->


 (b-section)
G|-----------------|-----------------|
D|-----------------|-----------------|
A|-----------------|-----------------|
E|-------------4-4-|-----9-9-----7-7-|
B|-2-2-7-7-5-5-----|-2-2-----7-7-----|
  <---------------4x---------------->


 (bridge)
G|-11---11---11---11---11---11---11---11---|-9----9----9----9----9----9----9----8/10
D|-11---11---11---11---11---11---11---11---|-11---11---11---11---11---11---11---9/11
A|-----------------------------------------|----------------------------------------
E|----9----9----9----9----9----9----9----0-|----0----0----0----0----0----0----0-----
B|-----------------------------------------|----------------------------------------

G|-------|
D|-------|
A|-------| (gehört noch zu bridge)
E|-9-9-9-|
B|-------|
  <-----------------------------wiederholen-/-repeat------------------------------->
            
Submit corrections

comments powered by Disqus
↑ Back to top | 4lyn Bass for Pearls & Beauty. Lyrics for acoustic guitar and electric guitar. Tablatures and chords are parodies/interpretations of the original songs. You may use it for private study, scholarship, research or language learning purposes only