>
 >
Neon

Neon Guitar Tabs

4lyn - Neon chords, tabs, tablatures, lyrics

Guitar lessons | Add/correct | Request | Top 50 tabs Artists:  A B C D E F G H I J K L M N O P Q R S T U V W X Y Z 0-9

Neon Guitar Tabs – 4lyn

CD, Sheet music, Poster

Do you like Neon? Share with your friends now
Tabs
Tuning: Drop Db (Db,Ab,Db,Gb,Bb,Eb)

Here´s one of the easiest but best instrumental songs ever.


1st part
clean  delay(13ms)
|-------------------------------------------------------|
|-------------------------------------------------------|
|-----------------3--2------------------------3-2-------|
|-3--5---5--3--5--------3-5----3--5---5--3--5-----3--5--|
|-------------------------------------------------------|
|-------------------------------------------------------|
  .  .   .  .  .  .  .  .  .   .  .   .  .  . . . .  .
repeat a coupple of times

then

|------------------------------------------6----------------|
|-----6-------6------6-------------8----------------8-------|
|---3---3-------3------3---------5---5--------5-------5-----|
|-5--------5------5------5-----7--------7-------7-------7---|
|-----------------------------------------------------------|
|-----------------------------------------------------------|


|---------------------------------------------------------|
|---------------------------------------------------------|
|---------------3--2---------------------------3--2-------|
|-3--5-5--3--5-------3--5---3--5--3--5-5--3--5------3--5--|
|---------------------------------------------------------|
|---------------------------------------------------------|
  .  . .  .  .  .  . .  .   .  .  .  . .  .  . .  . .  .
repeat


|------------------------------------------6----------------|
|-----6-------6------6-------------8----------------8-------|
|---3---3-------3------3---------5---5--------5-------5-----|
|-5--------5------5------5-----7--------7-------7-------7---|
|-----------------------------------------------------------|
|-----------------------------------------------------------|


|---------------------------------------------------------|
|---------------------------------------------------------|
|---------------3--2---------------------------3--2-------|
|-3--5-5--3--5-------3--5---3--5--3--5-5--3--5------3--5--|
|---------------------------------------------------------|
|---------------------------------------------------------|
  .  . .  .  .  .  . .  .   .  .  .  . .  .  . .  . .  .
repeat


|------------------------------------------6----------------|
|-----6-------6------6-------------8----------------8-------|
|---3---3-------3------3---------5---5--------5-------5-----|
|-5--------5------5------5-----7--------7-------7-------7---|
|-----------------------------------------------------------|
|-----------------------------------------------------------|

|--------------------------------------------|
|--------------------------------------------|
|-----------------3-----------------3--------|
|-5-3-5-3-5-3-5-3---5-3-5-3-5-3-5-3---5-3----|
|--------------------------------------------|
|--------------------------------------------|
  . . . . . . . . . . . . . . . . . . . . 


|-----6-------6------6--------------------------------------------------|
|---3---3-------3------3------------------------------------------------|
|-5--------5------5------5---------------------3-----------------3------|
|------------------------------5-3-5-3-5-3-5-3---5-3-5-3-5-3-5-3---5-3--|
|-----------------------------------------------------------------------|
|-----------------------------------------------------------------------|
                               . . . . . . . . . . . . . . . . . . . .

|---------------------------------------------------------|
|---------------------------------------------------------|
|---------------3--2---------------------------3--2-------|
|-3--5-5--3--5-------3--5---3--5--3--5-5--3--5------3--5--|
|---------------------------------------------------------|
|---------------------------------------------------------|
repeat


2nd part

|-------------------------------------------------|
|-------------------------------------------------|
|-------------------------------------------------|
|-------------------------------------------------|
|-1~~~~~~~~~p0~~~~-------1~~~~~~~~~p0~~~~---------|
|-1~~~~~~~~~p0~~~~-------1~~~~~~~~~p0~~~~---------|
distorted use a volume swell


|------------------------|
|------------------------|
|------------------------|
|------------------------|
|-0--1-1--0--1-1--0-1-1--|
|-0--1-1--0--1-1--0-1-1--|
  .  . .  .  . .  . . .
repeat use the volume swell


|-xxxxxxxxxx-xxxxxxxxxxx---|
|-xxxxxxxxxx-xxxxxxxxxxx---|
|-3333333333-55555555555---|
|-1111111111-11111111111---|
|-1111111111-11111111111---|
|-1111111111-11111111111---|
play a coupple of times

Ending

|---------------------------------------------------------|
|---------------------------------------------------------|
|---------------3--2---------------------------3--2-------|
|-3--5-5--3--5-------3--5---3--5--3--5-5--3--5------3--5--|
|---------------------------------------------------------|
|---------------------------------------------------------|
  .  . .  .  .  .  . .  .   .  .  .  . .  .  . .  . .  .
repeat

Done

..:palm muting
p :pull off





Comments


Popular 4lyn tabs & chords
Bahama Mama Bass Tabs
Bahama Mama Tabs
Bahama Mama 2 Tabs
Feel Me Tabs
Kisses Of A Strobelight Tabs
Lyn Tabs
Nostalgia Intro Tabs
Nostalgia Intro 1 Tabs
Pearls And Beauty Tabs
Whooo Tabs


Song lyrics



↑ Back to top | Tablatures and chords are parodies/interpretations of the original songs. You may use it for private study, scholarship, research or language learning purposes only
© 2014 AZChords.com Contact us | Privacy policy | DMCA | Add/correct tabs | Request tabs | Top 50 tabs