» » »

4lyn, Lyn Tabs (ver.1)

Artists:  A B C D E F G H I J K L M N O P Q R S T U V W X Y Z # 

Lyn Tabs (ver.1)

4lyn Tabs
 Rating:
4/5 (4 votes)
Lyn lessons Tabs too difficult? Try these video lessons and learn fast
1
                Guitar: Rene Russo

Tuning: on stage he uses B, F#, B, E, G#, C#  but for the album it´s Drop D

Ok this is my first tab but I saw (parts of the song) it live in concert and I think it sounds awful !!!!!!!

Chorus:
e--------(5)----(7)--(2)---(3)-----
h---------5-----7----2-----3-----    play each Chord a few times you`ll get it
g---------7-----9----4-----5-----        (Chord change not shown)     
D--------7-----9----4-----5------    if you listen to the song 
A--------5-----7----2-----3------
D--------5-----7----2-----3-------

Interlude:
Not sure about this part I think you have to play around this notes it`s something with bending
slides and vibrato please mail me if you get the right interlude

e----------------------------------------------
h----------------------------------------------
g----------------------------------------------
D----------------------------------------------
A-------------15~~~-----17~~---19~~~~----
D-----------------------------------------------

e------------------------------------------------------------------------------------
h------------------------------------------------------------------------------------g------------------------------------------------------------------------------------
D-------------------------15~~~~------17~~~~---19~~~~~----|--17~~~----19~~~--20~~~---
A------------------------------------------------------------------------------------
D------------------------------------------------------------------------------------

Outro:

e----------(5)--(5)---(5)------------------------------------------------------------
h----------5---5-----5-------------------5--------5-------------------------5---5---g----------7---7-----7---------------7-------7--------------------------7-----7---  D----------7---7-----7----------7-----------------------------7-----------------
A----------5---5-----5------5-------------------------5---------------------------
D----------5---5-----5--------------------------------------------------------------
                                                           and so on.......fade out
  with Volume Knob
You can hit all strings but for me it sounds better if you don`t hit thev last or the last two strings not
Ok that`s it enjoy it  ;-)
            
Submit corrections

comments powered by Disqus
↑ Back to top | 4lyn Tabs for Lyn. Lyrics for acoustic guitar and electric guitar. 1 Tablatures and chords are parodies/interpretations of the original songs. You may use it for private study, scholarship, research or language learning purposes only