» » »

4ft Fingers, Slowly Sinking Tabs (ver.1)

Artists:  A B C D E F G H I J K L M N O P Q R S T U V W X Y Z # 

Slowly Sinking Tabs (ver.1)

4ft Fingers Tabs
Rating:
5/5 (1 vote)
Slowly Sinking lessons Tabs too difficult? Try these video lessons and learn fast
                All credit to Edd Duthie and Matt Carver-Smith.
 Matt.


KEY: /  - slide from chord to chord/ note to note

With the weird 6 chords, etc
               x
               4
you play the normal like, D# chord but kinda mute the middle string,
using your index finger seems to work best, but hey see what works for you!

Enjoy!

INTRO:

[guitar 1]
e|---------------------------------------------------------------------------|
B|---------------------------------------------------------------------------|
G|--6--6-6-6-----------------------------------------------------------------|
D|--6--6-6-6-6--7--7-7--7-7-7-7--6--9-9-9-9-3--4--4-4--4-4-4-4---------------|
A|--4--4-4-4-6--7--7-7--7-7-7-7--6--9-9-9-9-3--4--4-4--4-4-4-4---------------|
E|-----------4--5--5-5--5-5-5-5--4--7-7-7-7-1--2--2-2--2-2-2-2---------------|

[guitar 2 part 1]
e|---------------------------------------------------------------------------|
B|---------------------------------------------------------------------------|
G|--6~-let-ring--------------------------------------------------------------|
D|--6~--------------------------------\\\\\\\\\\\\\\\\\\\\\\-pick-slide------|
A|--4~--------------------------------\\\\\\\\\\\\\\\\\\\\\\-----------------|
E|------------------------------------\\\\\\\\\\\\\\\\\\\\\\-----------------|

[guitar 2 part 2]
e|---------------------------------------------------------------------------|
B|---------------------------------------------------------------------------|
G|--6-6-6-6-6/9-9-9--9-9/8-8/9-9/8/6-6-6-6-6-6-6-6---------------------------|
D|--x-x-x-x-x/x-x-x--x-x/x-x/x-x/x/x-x-x-x-x-x-x-x---------------------------|
A|--4-4-4-4-4/7-7-7--7-7/6-6/7-7/6/4-4-4-4-4-4-4-4---------------------------|
E|---------------------------------------------------------------------------|


VERSE 1: [Guitar 1 + 2]
e|---------------------------------------------------------------------------|
B|---------------------------------------------------------------------------|
G|--6--6-6-6-6-6-6-----------------------------------------------------------|
D|--6--6-6-6-6-6-6--7--7-7-7-7-7-7--9--9-9-9-9-9-9--4--4-4-4-4-4-4-----------|
A|--4--4-4-4-4-4-4--7--7-7-7-7-7-7--9--9-9-9-9-9-9--4--4-4-4-4-4-4-----------|
E|------------------5--5-5-5-5-5-5--7--7-7-7-7-7-7--2--2-2-2-2-2-2-----------|
PM    ...........     ...........     ...........     ...........

e|---------------------------------------------------------------------------|
B|---------------------------------------------------------------------------|
G|--6--6-6-6-6-6-6-----------------------------------------------------------|
D|--6--6-6-6-6-6-6--7--7-7-7-7-7-7--9--9-9-9-9-9-9--4------------------------|
A|--4--4-4-4-4-4-4--7--7-7-7-7-7-7--9--9-9-9-9-9-9--4------------------------|
E|------------------5--5-5-5-5-5-5--7--7-7-7-7-7-7--2------------------------|
PM    ...........     ...........     ...........


VERSE 2: same as intro, guitar 1


CHORUS: "parliament is slowly sinking..." [Guitar 1 + 2]
e|---------------------------------------------------------------------------|
B|---------------------------------------------------------------------------|
G|--6-6--6-6-6-6--9-9--9-9-9-9---------------------------(6)-----------------|
D|--6-6--6-6-6-6--9-9--9-9-9-9--7-7--7-7-7-7--7--6/77/9--(x) end on D#-------|
A|--4-4--4-4-4-4--7-7--7-7-7-7--7-7--7-7-7-7--7--6/77/9--(4)-----------------|
E|------------------------------5-5--5-5-5-5--5--4/55/7----------------------|
PM      .......       .......       .......      ...


BRIDGE: "they'll say what you wanna hear just for a vote..." [Guitar 1/2]
e|---------------------------------------------------------------------------|
B|---------------------------------------------------------------------------|
G|-6--6--6-6-6-6--8--8--8-8-8-8--9--9--9-9-9-9--9-9--9-9-9-------------------|
D|-x--x--x-x-x-x--x--x--x-x-x-x--x--x--x-x-x-x--x-x--x-x-x-------------------|
A|-4--4--4-4-4-4--6--6--6-6-6-6--7--7--7-7-7-7--7-7--7-7-7-------------------|
E|---------------------------------------------------------------------------|


ORDER:

INTRO [guitar 1] x4 w/no [guitar 2] x1,[guitar 2 part 1]x1 then [guitar 2 part 2]x2
VERSE 1     : VERSE1 x 2
VERSE 2     : Guitar 1 INTRO x2 + guitar 2 can play guitar 1 for extra Umff!
CHROUS      : CHORUS x4
INSTRUMENTAL: Guitar 1 INTRO x 3 w/ no Guitar 2 for 1 then Guitar 2 part 2 INTRO x2
VERSE 3     : VERSE X 2
VERSE 4     : AS VERSE 2
CHORUS      : CHORUS x 4
BRIDGE      : BRIDGE x 4
VERSE 5     : AS VERSE 2
CHORUS      : CHORUS x 4 end on D#
            

comments powered by Disqus
↑ Back to top | 4ft Fingers Tabs for Slowly Sinking. Lyrics for acoustic guitar and electric guitar. Tablatures and chords are parodies/interpretations of the original songs. You may use it for private study, scholarship, research or language learning purposes only