» » »

4ft Fingers, Learn To Survive Tabs (ver.1)

Artists:  A B C D E F G H I J K L M N O P Q R S T U V W X Y Z # 

Learn To Survive Tabs (ver.1)

4ft Fingers Tabs
 Rating:
4.2/5 (5 votes)
Learn To Survive lessons Tabs too difficult? Try these video lessons and learn fast
                All credit to Peter Mannion.
 Matt.

Intro [guitar 1]

E---------------------------------------------------------------------------
B---------------------------------------------------------------------------
G-5-------5-5-------5-5-------5-5-------------------------------------------
D-5-x-x-x-5-5-x-x-x-5-5-x-x-x-5-5-x-x-x-7-7-------7-7-------3-3-3-3-5-5-5-5-
A-3-x-x-x-3-3-x-x-x-2-2-x-x-x-2-2-x-x-x-7-7-x-x-x-7-7-x-x-x-3-3-3-3-5-5-5-5-
E---------------------------------------5-5-x-x-x-5-5-x-x-x-1-1-1-1-3-3-3-3-

Intro [guitar 2]

E---------------------------------------------------------------------------
B---------------------------------------------------------------------------
G---------------------------------------------------------------------------
D---------------------------------------7-------------------3-3-3-3-5-5-5-5-
A---------------------------------x-x-x-7-------------------3-3-3-3-5-5-5-5-
E---------------------------------x-x-x-5-------------------1-1-1-1-3-3-3-3-

Main Riff [guitar 1]

E---------------------------------------------------------------------------
B---------------------------------------------------------------------------
G-5-------5-5-------5-5-------5-5-------------------------------------------
D-5-x-x-x-5-5-x-x-x-5-5-x-x-x-5-5-x-x-x-7-7-------7-7-------3-3-3-3-5-5-5-5-
A-3-x-x-x-3-3-x-x-x-2-2-x-x-x-2-2-x-x-x-7-7-x-x-x-7-7-x-x-x-3-3-3-3-5-5-5-5-
E---------------------------------------5-5-x-x-x-5-5-x-x-x-1-1-1-1-3-3-3-3-

Main Riff [guitar 2]

E---------------------------------------------------------------------------
B---------------------------------------------------------------------------
G-5-------5-5---------------------------------------------------------------
D-5-x-x-x-5-5-x-x-x-5-5-------5-5-------7-7-------7-7-------3-3-3-3-5-5-5-5-
A-3-x-x-x-3-3-x-x-x-5-5-x-x-x-5-5-x-x-x-7-7-x-x-x-7-7-x-x-x-3-3-3-3-5-5-5-5-
E-------------------3-3-x-x-x-3-3-x-x-x-5-5-x-x-x-5-5-x-x-x-1-1-1-1-3-3-3-3-

Chorus

E---------------------------------------------------------------------------
B---------------------------------------------------------------------------
G-5-5-5-5-5-5-5-5-5-5-5-----------------------------------------------------
D-5-5-5-5-5-5-5-5-5-5-5-5-5-5-5-5-5-5-5-7-7-7-7-7-7-7-7-7-7-3-3-3-3-5-5-5-5-
A-3-3-3-3-3-3-3-3-3-5-5-5-5-5-5-5-5-5-5-7-7-7-7-7-7-7-7-7-7-3-3-3-3-5-5-5-5-
E-------------------3-3-3-3-3-3-3-3-3-3-5-5-5-5-5-5-5-5-5-5-1-1-1-1-3-3-3-3-

Solo

E---------------------------------------------------------------------------
B---------------------------------------------------------------------------
G-5-5-3-2-2---5-5-3-2-2---5-5-3-2-2---2---------5-5-3-2-2---5-5-3-2-2-------
D-----------------------------------5---5-4-5-------------------------------
A---------------------------------------------------------------------------
E---------------------------------------------------------------------------

E---------------------------------------------------------------------------
B---------------------------------------------------------------------------
G-5-5-3-2-2---2---------------------------------------------5-5-3-2-2-------
D-----------5---5-4-5---5-5-7-4-4-4-4-5-5---7-7-7-7-5-4-5-------------------
A---------------------------------------------------------------------------
E---------------------------------------------------------------------------

E---------------------------------------------------------------------------
B---------------------------------------------------------------------------
G-5-5-3-2-2---5-5-3-2-2---2-------------------------------------------------
D-----------------------5---5-4-5------5-5-5---5-5-5------------------------
A--------------------------------------5-5-5---5-5-5------------------------
E--------------------------------------3-3-3---3-3-3------------------------
            
Submit corrections

comments powered by Disqus
↑ Back to top | 4ft Fingers Tabs for Learn To Survive. Lyrics for acoustic guitar and electric guitar. Tablatures and chords are parodies/interpretations of the original songs. You may use it for private study, scholarship, research or language learning purposes only