» » »

Last Man Standing Tabs (ver.2)

Artists:  A B C D E F G H I J K L M N O P Q R S T U V W X Y Z # 

Last Man Standing Tabs (ver.2)

4ft Fingers
Rating:
0/5 (0 votes)

Hard to play? Try these video lessons and learn fast.
                First of all i do not think this tab is right at all i did it because i wanted someone to redo it so that i can play it. i would do the whole thing correctly but i don't have the this is from or the song so i can't listen to it.
|-------------
|-------------
|-------------
|-4-5-7-9-----
|-4-5-7-9-----
|-2-3-5-7-----

Interlude
|--------------------------------------------------------------------
|--------------------------------------------------------------------
|--------------------------------------------------------------------
|---------2---------3---------5---------7----------------------------
|-4--2-4-----5--3-5----7--5-7----9--7-9------------------------------
|-2----------3---------5---------7-----------------------------------

then you play that intro thing again just double scratch PM 
|--------------------------------------------------------------
|--------------------------------------------------------------------
|--------------------------------------------------------------------
|-----------------------------------------------------
|------------------------------------------------------------------
|----------------------------------------------------------------
            
Hard to play? Try these video lessons and learn fast. | Correct




comments powered by Disqus
↑ Back to top | Tablatures and chords are parodies/interpretations of the original songs. You may use it for private study, scholarship, research or language learning purposes only