» » »

4ft Fingers, Last Man Standing Bass tabs (ver.1)

Artists:  A B C D E F G H I J K L M N O P Q R S T U V W X Y Z # 

Last Man Standing Bass tabs (ver.1)

4ft Fingers Tabs
 Rating:
4/5 (4 votes)
Last Man Standing lessons Tabs too difficult? Try these video lessons and learn fast
1
                -------------------------------------------------------------------------------
-------------------------------------------------------------------------------


Tuning: Standard

Intro:

G|-----------------------|-----------------------|
D|-----------------------|-----------------------|
A|------------6666-------|-------4444------------|
E|--1111-4444------6666--|--1111------4444----6--|

Pre-Verse:

G|-----------------------------|
D|-----------------------------|
A|-----------------------------|	Repeat x 2
E|--11-xxx-11-xxx-11-xxx-xxxx--|

Verse:

G|--------------------------------------------|
D|--------------------------------------------|
A|------------6666------------4444------------|	Repeat x 2
E|--1111-4444------6666--1111------4444----6--|

Pre-Chorus:

G|-----------------------|
D|-----------------------|
A|-----------------------|
E|--1-----4-----4-----6--|

Chorus:

G|-----------------------|
D|-----------------------|
A|-------4444------6666--|
E|--1111------4444-------|

During 'Guitar Solo' play the Post-Chorus riff.

'Bass Solo':

G|-----------------------------xx--|
D|---------------------------------|
A|--------4-4-4-------6-6-6--------|	Repeat x 4
E|--1-1-1-------4-4-4--------------|

Chorus Variation:

G|---------------------------|
D|---------------------------|
A|--------44444-------66666--|	Repeat x 4 (This is played in a diff rythm, listen to the song)
E|--11111-------44444--------|



| /  slide up
| \  slide down
| h  hammer-on
| p  pull-off
| ~  vibrato
| +  harmonic
| x  Mute note
===============================================================================
            
Submit corrections

comments powered by Disqus
↑ Back to top | 4ft Fingers Bass for Last Man Standing. Lyrics for acoustic guitar and electric guitar. 1 Tablatures and chords are parodies/interpretations of the original songs. You may use it for private study, scholarship, research or language learning purposes only