» » »

Emergency Manoeuvre Bass tabs (ver.1)

Artists:  A B C D E F G H I J K L M N O P Q R S T U V W X Y Z # 

Emergency Manoeuvre Bass tabs (ver.1)

4ft Fingers
Rating:
0/5 (0 votes)

Hard to play? Try these video lessons and learn fast.
                This is the best 4ft fingers song! the song is reasonably easy but needs to be played really fast!EnJoy!
(Note: They are 10`s not 1, 0)

Intro part 1
(listen to the song to get the rhythem)
G:10101010101010101010-6666666666
D: 8 8 8 8 8 8 8 8 8 8-4444444444  X2
A:-------------------------------
E:-------------------------------

Intro part 2

G:---------------------
D:---------------------  X2
A:8888888888-4444444444
E:---------------------

Verse

G:-------------------------------------------------
D:-------------------------------------------------  X2
A:8888888888-4444444444-----------------------8-6--
E:----------------------4444444444-6666666666-----8

Pre-Chorus

G:-------------------------------------------
D:-------------------------------------------  X2
A:4444444444---------------------------------
E:-----------4444444444-6666666666-2222222222

Chorus
(not sure bout this part play around with it!)
G:-----------------------------------2
D:------------------------4--2-----2--
A:4-444-----------------------4-2-----
E:------4-444-6-666-2-222-------------

Intro part 2

G:---------------------
D:---------------------  X2
A:8888888888-4444444444
E:---------------------

Verse

G:-------------------------------------------------
D:-------------------------------------------------  X2
A:8888888888-4444444444-----------------------8-6--
E:----------------------4444444444-6666666666-----8

Pre-Chorus

G:-------------------------------------------
D:-------------------------------------------  X2
A:4444444444---------------------------------
E:-----------4444444444-6666666666-2222222222

Chorus
(not sure bout this part play around with it!)
G:-----------------------------------2
D:------------------------4--2-----2--
A:4-444-----------------------4-2-----
E:------4-444-6-666-2-222-------------

Verse

G:-------------------------------------------------
D:-------------------------------------------------  X2
A:8888888888-4444444444-----------------------8-6--
E:----------------------4444444444-6666666666-----8

Breakdown

G:--------
D:--------  X2
A:88-88-88
E:--------

Verse

G:-------------------------------------------------
D:-------------------------------------------------  X1
A:8888888888-4444444444-----------------------8-6--
E:----------------------4444444444-6666666666-----8

Intro part 2

G:---------------------
D:---------------------  X2
A:8888888888-4444444444
E:---------------------

Chorus
(not sure bout this part play around with it!)
G:-----------------------------------2
D:------------------------4--2-----2--
A:4-444-----------------------4-2-----
E:------4-444-6-666-2-222-------------

Pre-Chorus

G:-------------------------------------------
D:-------------------------------------------  X2
A:4444444444---------------------------------
E:-----------4444444444-6666666666-2222222222

Bridge

G:10101010101010101010-6666666666------------8888888888-8-6---
D: 8 8 8 8 8 8 8 8 8 8-4444444444-6666666666-6666666666-----10 X2
A:--------------------------------4444444444------------------
E:------------------------------------------------------------

Verse

G:-------------------------------------------------
D:-------------------------------------------------  X2
A:8888888888-4444444444-----------------------8-6--
E:----------------------4444444444-6666666666-----8

Outro part 1

G:10101010101010101010-6666666666------------8888888888-8-6---
D: 8 8 8 8 8 8 8 8 8 8-4444444444-6666666666-6666666666-----10 X1
A:--------------------------------4444444444------------------
E:------------------------------------------------------------

Outro Part 2


G:10101010101010101010-6666666666------------8888888888-8--6-----10
D: 8 8 8 8 8 8 8 8 8 8-4444444444-6666666666-6666666666------10-- 8 X1
A:--------------------------------4444444444-----------------------
E:-----------------------------------------------------------------
            
Hard to play? Try these video lessons and learn fast. | Correct




comments powered by Disqus
↑ Back to top | Tablatures and chords are parodies/interpretations of the original songs. You may use it for private study, scholarship, research or language learning purposes only