» » »

Broken Bones Tabs (ver.1)

Artists:  A B C D E F G H I J K L M N O P Q R S T U V W X Y Z # 

Broken Bones Tabs (ver.1)

4ft Fingers
Rating:
0/5 (0 votes)

Hard to play? Try these video lessons and learn fast.
                
Below is the song order, NOTE if the diffs are on the same line in the order list they are played at the 
time

Song Order
Riff 1A / Riff 1B

Riff 2A / Riff 1A

Riff 1A / Riff 1A

Riff 3A / Riff 3A

Riff 2A / Riff 1A

Riff 1A / Riff 1A

Riff 3A / Riff 3A

Riff 4A

Riff 4A / Riff 4B

Riff 1A / Riff 5B

Riff 6A / Riff 6A

Listen To the song for timings and number of times each riff is played



-|---------------|---------------|---------------|---------------|------------|
-|---------------|---------------|---------------|---------------|------------|
-|-----4------4--|---------------|---------------|---------------|------------|
-|-4-4-4--4-4-4--|-----6------6--|-----7------7--|-----2------2--|------------|
-|-2-2-2--2-2-2--|-6-6-6--6-6-6--|-7-7-7--7-7-7--|-2-2-2--2-2-2--|------------|
-|---------------|-4-4-4--4-4-4--|-5-5-5--5-5-5--|-0-0-0--0-0-0--|------------|
 Guitar 1 Riff 1A play each bar twice

-|---------------|---------------|---------------|------------------|---------|
-|---------------|---------------|---------------|------------------|---------|
-|-4-----------6-|-4-----------6-|-4-----------6-|------------------|---------|
-|---------------|---------------|---------------|-4-4-4-4--4-4-4-4-|---------|
-|---------------|---------------|---------------|-2-2-2-2--2-2-2-2-|---------|
-|---------------|---------------|---------------|------------------|---------|
 Guitar 2 Riff 1B

-|-------------|-------------|----------------|-------------------------------|
-|-7-7-7-7-7-7-|-------------|----------------|-------------------------------|
-|-------------|-8-8-8-8-8-8-|-9-9-9-9-8-6-4--|-------------------------------|
-|-------------|-------------|----------------|-------------------------------|
-|-------------|-------------|----------------|-------------------------------|
-|-------------|-------------|----------------|-------------------------------|
 Guitar 2 Riff 2A

-|----------------|-----------------|-----------------|-----------------|-----|
-|----------------|-----------------|-----------------|-----------------|-----|
-|-4-4-4-4-4-4-4-4|-----------------|-----------------|-----------------|-----|
-|-4-4-4-4-4-4-4-4|-4-4-4-4-4-4-4-4-|-2-2-2-2-2-2-2-2-|----6--6----4--4-|-----|
-|-2-2-2-2-2-2-2-2|-4-4-4-4-4-4-4-4-|-2-2-2-2-2-2-2-2-|----6--6----4--4-|-----|
-|----------------|-2-2-2-2-2-2-2-2-|-0-0-0-0-0-0-0-0-|----4--4----2--2-|-----|
 Guitars 1 & 2  Riff 3A

-|-------------------------------|-------------------------------|------------|
-|-0-0-0-0-0--0-0-0-0-0--0-0-0-0-|-------------------------------|------------|
-|-4-4-4-4-4--4-4-4-4-4--4-4-4-4-|-------------------------------|------------|
-|-4-4-4-4-4--4-4-4-4-4--4-4-4-4-|-6-6-6-6-6--6-6-6-6-6--6-6-6-6-|------------|
-|-2-2-2-2-2--2-2-2-2-2--2-2-2-2-|-6-6-6-6-6--6-6-6-6-6--6-6-6-6-|------------|
-|-------------------------------|-4-4-4-4-4--4-4-4-4-4--4-4-4-4-|------------|
 Clean Guitar Riff 4A

-|-------------------------------|-------------------------------|------------|
-|-------------------------------|-------------------------------|------------|
-|-------------------------------|-------------------------------|------------|
-|-7-7-7-7-7--7-7-7-7-7--7-7-7-7-|-2-2-2-2-2--2-2-2-2-2--2-2-2-2-|------------|
-|-7-7-7-7-7--7-7-7-7-7--7-7-7-7-|-2-2-2-2-2--2-2-2-2-2--2-2-2-2-|------------|
-|-5-5-5-5-5--5-5-5-5-5--5-5-5-5-|-0-0-0-0-0--0-0-0-0-0--0-0-0-0-|------------|


-|-------|----------------|----------------|-------------|--------------------|
-|-------|----------------|----------------|-------------|--------------------|
-|-------|-4----4----4----|----------------|-------------|--------------------|
-|-------|-4----4----4----|-6----6----6----|-7--6--4--2--|--------------------|
-|-2-2-2-|-2----2----2----|-6----6----6----|-7--6--4--2--|--------------------|
-|-0-0-0-|----------------|-4----4----4----|-5--4--2--0--|--------------------|
 Guitar 2 Riff 4B

-|------------------------|--------------------------|------------------------|
-|-7-----7-----7-----7----|-7-7-7-7-7-7--7-7-7-9-7-7-|------------------------|
-|----8-----8-----8-----8-|--------------------------|------------------------|
-|------------------------|--------------------------|------------------------|
-|------------------------|--------------------------|------------------------|
-|------------------------|--------------------------|------------------------|
 Guitar 2 Riff 5A

-|---------------|---------------|---------------|--------------|-------------|
-|---------------|---------------|---------------|--------------|-------------|
-|-----4------4--|---------------|---------------|-----9------9-|-------------|
-|-4-4-4--4-4-4--|-----6------6--|-----7------7--|-9-9-9--9-9-9-|-------------|
-|-2-2-2--2-2-2--|-6-6-6--6-6-6--|-7-7-7--7-7-7--|-7-7-7--7-7-7-|-------------|
-|---------------|-4-4-4--4-4-4--|-5-5-5--5-5-5--|--------------|-------------|
 Guitar 1 Riff 6A
            
Hard to play? Try these video lessons and learn fast. | Correct




comments powered by Disqus
↑ Back to top | Tablatures and chords are parodies/interpretations of the original songs. You may use it for private study, scholarship, research or language learning purposes only