» » »

4ft Fingers, Brickwall Bass tabs (ver.1)

Artists:  A B C D E F G H I J K L M N O P Q R S T U V W X Y Z # 

Brickwall Bass tabs (ver.1)

4ft Fingers Tabs
Rating:
0/5 (0 votes)
Brickwall lessons Tabs too difficult? Try these video lessons and learn fast
                Band:4ft Fingers

Intro/Verse
G|--------------------------------------|
D|--------------------------------------|
A|-----5555-7777-3333----5555-32023532--|
E|-3333--------------3333---------------|

Chorus
G|--------------------|
D|--------------------|
A|-7777-575-33333235--|
E|--------------------|

Chorus end
G|------------------------|
D|----------4444-55-77----|
A|-5555-7777--------------|
E|------------------------|

Bridge pt1
G|--------------------14-12--12------------|
D|---------------12-12-----14--14-12-------|
A|-55/////10-1010-------------------14-12--|
E|-----------------------------------------|

Bridge pt 2
G|---------------------|
D|---------------------|
A|-----5-5-3-33-5-5----|
E|-3-33----------------|

Bridge pt3
G|---------------------|
D|---------------------|
A|-----5555-3333-5555--|
E|-3333----------------|

Order

Intro/Verse x4
Chorus x4
Chorus end x1
Intro/Verse x4
Chorus x4
Chorus end x1
Bridge pt1 x1
Bridge pt2 x4
Bridge pt3 x4
Chorus end x1
Intro/Verse x2
Chorus x4
Chorus end x1

thats all 4 this one folks.
            
Submit corrections

comments powered by Disqus
↑ Back to top | 4ft Fingers Bass for Brickwall. Lyrics for acoustic guitar and electric guitar. Tablatures and chords are parodies/interpretations of the original songs. You may use it for private study, scholarship, research or language learning purposes only