» » »

Step Into The Sideshow Tabs (ver.2)

Artists:  A B C D E F G H I J K L M N O P Q R S T U V W X Y Z # 

Step Into The Sideshow Tabs (ver.2)

40 Below Summer
Rating:
0/5 (0 votes)

Hard to play? Try these video lessons and learn fast.
                i was looking at the other guys tab and its totally wrong this is how its played
tuning Db Ab Db Gb Bb Eb

intro/verse
00 7 00 6 oo 2h3p2 00----------------------------------------------------------------

chorus x2
--------------------------------------
--------------------------------------
--------------------------------------
--------------------------------------
----------------5----4----------------
777777777777 00 7 00 6----------------

then 
x2
--------------------------------------
--------------------------------------
--------------------------------------
--------------------------------------
---------------5----4-----------------
22222222222 00 7 00 6-----------------

bridge
--------------------------------------
--------------------------------------
--------------------------------------
--------------------------------------
2-0---------4-------------------------
2 0 6 7 6 0 6 2 3 2 0  00-------------

crazy part
--------------------------------------
--------------------------------------
--------------------------------------
--------------------------------------
--------------------------------------
2 2 2 2 2222 3 2 ---------------------

then 

--------------------------------------
--------------------------------------
--------------------------------------
2-2-2-2-2222-3-2----------------------
2-2-2-2-2222-3-2----------------------
2 2 2 2 2222 3 2----------------------

these guys are the *** im 99% positive this is correct  if you dont have invitation to the dance get it its the ***
            
Hard to play? Try these video lessons and learn fast. | Correct




comments powered by Disqus
↑ Back to top | Tablatures and chords are parodies/interpretations of the original songs. You may use it for private study, scholarship, research or language learning purposes only