» » »

40 Below Summer, Self Medicate Bass tabs (ver.1)

Artists:  A B C D E F G H I J K L M N O P Q R S T U V W X Y Z # 

Self Medicate Bass tabs (ver.1)

40 Below Summer Tabs
 Rating:
3.4/5 (5 votes)
Self Medicate lessons Tabs too difficult? Try these video lessons and learn fast
1
                40 Below Summer: Self Medicate
Tuning: Drop B

Intro/Verse
-----------------------------------------|
---------------------3-------------------|
-3---------------------------------------|
---5-00-0-000-0-0-0----5-00-0-000-0-0-0--|
 
-----------------------------------------|
-----------------------------------------|
-3------------------3--------------------|
---5-00-0-000-0-0-0---5-00-0-000-0-0-0---|
  
Pre-Chorus
-----------------------------------------|
-----------------------------------------|
-----------------------------------------|
-00---00---00----------------------------|

Chorus
-----------------------------------------|
-----------------------------------------|
-1-11-1---1---1--4-44-4---4---4----------|
--------00--00----------00--00-----------|
 
-----------------------------------------|
-----------------------------------------|
-----------------------------------------|
-4-44-4-00-4-00-4--2-22-2-00-2-00-2------|
   
Interlude 1
-----------------------------------------|
-----------------------------------------|
-----------------------------------------|
-00-5h6-0-6h7-0-8h9-00-6p5-0-------------|
Interlude 2 is interlude 1.
Interlude 3 is Interlude 2 which is interlude 1.
Outro, play intro once.
Outro 2
-----------------------------------------|
------3----------------------------------|
-3---------3----3------------------------|
---5~---5~---5~---5~---------------------|
Fill
---------------|
---------------|
---------------|
-5-3-6---------|
Outro 3, play interlude 3 once.
            
Submit corrections

comments powered by Disqus
↑ Back to top | 40 Below Summer Bass for Self Medicate. Lyrics for acoustic guitar and electric guitar. 1 Tablatures and chords are parodies/interpretations of the original songs. You may use it for private study, scholarship, research or language learning purposes only