» » »

Minus One Tabs (ver.2)

Artists:  A B C D E F G H I J K L M N O P Q R S T U V W X Y Z # 

Minus One Tabs (ver.2)

40 Below Summer
Rating:
0/5 (0 votes)

Hard to play? Try these video lessons and learn fast.
                40 Below Summer: Minus one
Tuning: Drop B

Intro/Post-Chorus
-----------------------------------------|
-----------------------------------------|
-----------------------------------------|
-----------------------------------------|
-----------------------------------------|
-2-323232-3-2-32-------------------------|
Verse
-----------------   |------------------------|
-----------------   |------------------------|
-----------------   |------------------------|
-2-323232-3-2-32-X3 |-2-323232-3-4-31--------|
-2-323232-3-2-32-   |-2-323232-3-4-31--------|
-2-323232-3-2-32-   |-2 323232-3-4-31--------|
Chorus
----------   |-----------|
----------   |-----------|
----------   |-----------|
-------5b-X3 |-43-3-31---|
-000-0----   |-43-3-31---|
-000-0----   |-43-3-31---|
 ... .
Interlude1
-----------------------------------------|
-----------------------------------------|
-----------------------------------------|
-----------------------------------------|
-----------------------------------------|
-2-22-222-222-20002-22-22-222-20002------|
               ...             ...
Interlude 2
-----------------------------------------|
-----------------------------------------|
-----------------------------------------|
-22-22-22-22-33-22-----------------------|
-22-22-22-22-33-22-----------------------|
-22-22-22-22-33-22-----------------------|
Interlude 3
-----------------------------------------|
-----------------------------------------|
-----------------------------------------|
-3332224442223322------------------------|
-3332224442223322------------------------|
-3332224442223322------------------------|
Interlude 4 is interlude 3 but palm muted.
Outro
-----------------------------------------|
-----------------------------------------|
-----------------------------------------|
-3-2-4-2-2233----------------------------|
-3-2-4-2-2233----------------------------|
-3-2-4-2-2233----------------------------|
            
Hard to play? Try these video lessons and learn fast. | Correct




comments powered by Disqus
↑ Back to top | Tablatures and chords are parodies/interpretations of the original songs. You may use it for private study, scholarship, research or language learning purposes only