» » »

40 Below Summer, I'm So Ugly Bass tabs (ver.1)

Artists:  A B C D E F G H I J K L M N O P Q R S T U V W X Y Z # 

I'm So Ugly Bass tabs (ver.1)

40 Below Summer Tabs
Rating:
0/5 (0 votes)
I'm So Ugly lessons Tabs too difficult? Try these video lessons and learn fast
                40 Below Summer: Minus one
Tuning: Drop B

Intro/Post-Chorus
-----------------------------------------|
-----------------------------------------|
-----------------------------------------|
-2-323232-3-2-32-------------------------|
Verse
-----------------   |------------------------|
-----------------X3 |------------------------|
-----------------   |------------------------|
-2-323232-3-2-32-   |-2 323232-3-4-31--------|
Chorus
----------   |-----------|
----------X3 |-----------|
----------   |-----------|
-000-0----   |-43-3-31---|
  
Interlude1
-----------------------------------------|
-----------------------------------------|
-----------------------------------------|
-2-22-222-222-20002-22-22-222-20002------|
                            
Interlude 2
-----------------------------------------|
-----------------------------------------|
-----------------------------------------|
-22-22-22-22-33-22-----------------------|
Interlude 3
-----------------------------------------|
-----------------------------------------|
-----------------------------------------|
-3332224442223322------------------------|
Interlude 4 is interlude 3 but palm muted.
Outro
-----------------------------------------|
-----------------------------------------|
-----------------------------------------|
-3-2-4-2-2233----------------------------|
            

comments powered by Disqus
↑ Back to top | 40 Below Summer Bass for I'm So Ugly. Lyrics for acoustic guitar and electric guitar. Tablatures and chords are parodies/interpretations of the original songs. You may use it for private study, scholarship, research or language learning purposes only