>
 >
Hatemail

Hatemail Guitar Tabs

40 Below Summer - Hatemail chords, tabs, tablatures, lyrics

Guitar lessons | Add/correct | Request | Top 50 tabs Artists:  A B C D E F G H I J K L M N O P Q R S T U V W X Y Z 0-9

Hatemail Guitar Tabs – 40 Below Summer

CD, Sheet music, Poster

Do you like Hatemail? Share with your friends now
Tabs
Band: 40 Below Summer
Tuning: Drop B

I know this tab isn't amazing, but it's pretty good, and if someone wants to redo it, 
free of course. Make sure you really listen to the timing.

Intro/Verse
---------------|   ---------------|
---------------|   ---------------|
--------5------|   -7-7----7-7----|
-0-2-3--3-3-2--|X3 -6-6-0--6-6----|
-0-2-3----3-2--|   -5-5-0--5-5----|
-0-2-3----3-2--|   -----0---------|
   . .    . .
Pre-chorus
--------------------------|
--------------------------|
--------7------7------7---|
-11111--6-1111-6-1111-6---|
-11111--5-1111-5-1111-5---|
-11111----1111---1111-----|
 .....    ....   ....
-------------------------|
-------------------------|
--------7------7-8-8-8---|
-11111--6-1111-6-7-7-7---|
-11111--5-1111-5-6-6-6---|
-11111----1111-----------|
 .....    ....
Chorus
---------------------------------|
---------------------------------|
---------------------------------|X2
-0000--0000--0000--0000--4-------|
-0000--0000--0000--0000--2-4-3---|
-0000--0000--0000--0000----4-3---|
 ....  ....  ....  ....
Chorus 2(really iffy about these higher notes, so try and figure 'em out)
--------------|   ---------------|
--------------|   ---------------|
--------------|   ---------------|X1       (whole thing X2)
-0000--44-4/7-|X3 -0000--4-------|
-0000--22-2/5-|   -0000--2-4-3---|
-0000---------|   -0000----4-3---|
 ....
-verse
-pre-chrous
-chorus 1
-chorus 2

Interlude 1
---------|
---------| (play X4 with wah filter)
---------| (play X8 with just dist.)
---------|
-2-------|
---4-5---|
Interlude 2
---------|
---------|
---------| (X8 with just dist.)
-4-------| (X16 with the 2nd and 3rd note PMed)
-2-4-3---|
---4-3---|

-Chorus 1
-Chorus 2





Comments


Popular 40 Below Summer tabs & chords
Falling Down Bass Tabs
Better Life Tabs
Breathless Tabs
I'm Still Bleeding Tabs
Minus One Tabs
Power Tool Tabs
Rope 1 Tabs
Smile Electric 1 Tabs
Step Into The Sideshow 2 Tabs
We The People Tabs


Song lyrics



↑ Back to top | Tablatures and chords are parodies/interpretations of the original songs. You may use it for private study, scholarship, research or language learning purposes only
© 2014 AZChords.com Contact us | Privacy policy | DMCA | Add/correct tabs | Request tabs | Top 50 tabs