» » »

40 Below Summer, Faces Tabs (ver.2)

Artists:  A B C D E F G H I J K L M N O P Q R S T U V W X Y Z # 

Faces Tabs (ver.2)

40 Below Summer Tabs
Rating:
0/5 (0 votes)
Faces lessons Tabs too difficult? Try these video lessons and learn fast
                40 Below Summer: Faces
Tuning: Drop B

Intro/Verse/Outro
-----------------------------------------|
-----------------------------------------|
-----------------------------------------|
-0000002~-00000032002--------------------|
-0000002~-00000032002--------------------|
-0000002~-00000032002--------------------|
 ......   ......  ..
Chorus
-----------------------------------------|
-----------------------------------------|
-88----8/101010------5----5/666/8888-----|
-88----8/101010------5----5/666/8888-----|
-66-xx-6/8-8-8--0000-3-00-3/444/6666-----|
-66-xx-6/8-8-8--0000-3-00-3/444/6666-----|
                ....   ..
Interlude(clean)
-----------------------------------------|
-----------------------8-8-8-------------|
--------7h9-9-x-9p7-6-7-7-7--------------|
-7h8-8-x---------------------------------|
-----------------------------------------|
-----------------------------------------|
Interlude2(build up)
-----------------------------------------|
-----------------------------------------|
-----------------------------------------|
-----------------------------------------|
-210210210210-0000-----------------------|
-----------------------------------------|
              ....
Interlude 3
-----------------------  |------------------|
-----------------------  |------------------|
-----------------------  |------------------|
-0-0-2p1-0-0-0-1h2/4p3-X3|-0-0-2p1-444111---|
-0-0-2p1-0-0-0-1h2/4p3-  |-0-0-2p1-444111---|
-0-0-2p1-0-0-0-1h2/4p3-  |-0-0-2p1-444111---|
                                   ......
Interlude 4 is the chorus played clean X4
            

comments powered by Disqus
↑ Back to top | 40 Below Summer Tabs for Faces. Lyrics for acoustic guitar and electric guitar. Tablatures and chords are parodies/interpretations of the original songs. You may use it for private study, scholarship, research or language learning purposes only