» » »

40 Below Summer, Faces Tabs (ver.1)

Artists:  A B C D E F G H I J K L M N O P Q R S T U V W X Y Z # 

Faces Tabs (ver.1)

40 Below Summer Tabs
 Rating:
4/5 (4 votes)
Faces lessons Tabs too difficult? Try these video lessons and learn fast
                
PM - Palm mute
~ - Vibrato
h - Hammer on
p - Pull off
/ - Slide

Tuning - B F# B E G# C#


Intro/Verse
|-----------------------------------|
|-----------------------------------|
|-----------------------------------|
|-0-0-0-0-0-2---0-0-0-0-0-3-2-0-0-2-|
|-0-0-0-0-0-2---0-0-0-0-0-3-2-0-0-2-|
|-0-0-0-0-0-2---0-0-0-0-0-3-2-0-0-2-|
PM- - - - -     - - - - -     - -


Chorus
|-----------------------------------------------|
|-----------------------------------------------|
|-8-8-xx-8/101010---------4-----4/6-6-6/8-8-8-8-|
|-8-8-xx-8/101010---------4-----4/6-6-6/8-8-8-8-|
|-6-6-xx-6/8-8-8--0-0-0-0-3-0-0-3/4-4-4/6-6-6-6-|
|-6-6-xx-6/8-8-8--0-0-0-0-3-0-0-3/4-4-4/6-6-6-6-|
PM                - - - -   - -

Verse
|-----------------------------------|
|-----------------------------------|
|-----------------------------------|
|-0-0-0-0-0-2---0-0-0-0-0-3-2-0-0-2-|
|-0-0-0-0-0-2---0-0-0-0-0-3-2-0-0-2-|
|-0-0-0-0-0-2---0-0-0-0-0-3-2-0-0-2-|
PM- - - - -     - - - - -     - -

Chorus
|-----------------------------------------------|
|-----------------------------------------------|
|-8-8-xx-8/101010---------4-----4/6-6-6/8-8-8-8-|
|-8-8-xx-8/101010---------4-----4/6-6-6/8-8-8-8-|
|-6-6-xx-6/8-8-8--0-0-0-0-3-0-0-3/4-4-4/6-6-6-6-|
|-6-6-xx-6/8-8-8--0-0-0-0-3-0-0-3/4-4-4/6-6-6-6-|
PM                - - - -   - -

*Havent figured out bridge 1 yet.

Build Up *Changing Faces, Changing Faces!*
|-------------------------------|
|-------------------------------|
|-------------------------------|
|-------------------------------|
|-2-1-0-2-1-0-2-1-0-2-1-0-0000--|
|-------------------------------|
PM                        ----

Bridge 2
|------------------------|              |------------------------|
|------------------------|              |------------------------|
|------------------------| x3 then play |------------------------|
|-0--0-2h1-0-0-0-1h2/4h3-|              |-0--0-2h1-0-4-4-4-1-1-1-|
|-0--0-2h1-0-0-0-1h2/4h3-|              |-0--0-2h1-0-4-4-4-1-1-1-|
|-0--0-2h1-0-0-0-1h2/4h3-|              |-0--0-2h1-0-4-4-4-1-1-1-|
PM                                                   - - - - - -

Chorus -play in clean, then after about 2-3 times switch to distortion
|-----------------------------------------------|
|-----------------------------------------------|
|-8-8-xx-8/101010---------4-----4/6-6-6/8-8-8-8-|
|-8-8-xx-8/101010---------4-----4/6-6-6/8-8-8-8-|
|-6-6-xx-6/8-8-8--0-0-0-0-3-0-0-3/4-4-4/6-6-6-6-|
|-6-6-xx-6/8-8-8--0-0-0-0-3-0-0-3/4-4-4/6-6-6-6-|
PM                - - - -   - -

Outro
|-----------------------------------|
|-----------------------------------|
|-----------------------------------|
|-0-0-0-0-0-2---0-0-0-0-0-3-2-0-0-2-|
|-0-0-0-0-0-2---0-0-0-0-0-3-2-0-0-2-|
|-0-0-0-0-0-2---0-0-0-0-0-3-2-0-0-2-|
PM- - - - -     - - - - -     - -
            
Submit corrections

comments powered by Disqus
↑ Back to top | 40 Below Summer Tabs for Faces. Lyrics for acoustic guitar and electric guitar. Tablatures and chords are parodies/interpretations of the original songs. You may use it for private study, scholarship, research or language learning purposes only