» » »

40 Below Summer, Endorphins Tabs (ver.1)

Artists:  A B C D E F G H I J K L M N O P Q R S T U V W X Y Z # 

Endorphins Tabs (ver.1)

40 Below Summer Tabs
 Rating:
4/5 (4 votes)
Endorphins lessons Tabs too difficult? Try these video lessons and learn fast
                40 Below Summer:Endorphins
Tuning: Drop B

Intro(clean)(those are 12's, not 1's and 2's)
-----------------------------------------|
-----------------------------------------|
-----------------------------------------|
-121212----------------------------------|
--------121212-12h14p12h14p12~-----------|
-----------------------------------------|
Intro 2/Chorus
-----------------------------------------|
-----------------------------------------|
-9---------------------------------------|
-7------3------5----5-555555-------------|
-7-00-0-3-00-0-5-00-5-555555-------------|
-7-00-0-3-00-0-5-00-5-555555-------------|
   .. .   .. .   ..
Post-Chorus
-----------------------------------------|
-----------------------------------------|
-----------------------------------------|
-----------------------------------------|
-7775554443332200------------------------|
-7775554443332200------------------------|
 ................
Verse Part 1(play once, intro is played over whole verse)
-----------------------------------------|
-----------------------------------------|
-----------------------------------------|
-----------------------------------------|
-----------------------------------------|
-2222-2222-2222--------------------------|
 .... .... ....
Verse Part 2
-----------------------------------------|
-----------------------------------------|
-----------------------------------------|
-----------------------------------------|
-----------------------------------------|
-22-22-2222-22-22-2222-------------------|
 .. .. .... .. .. ....
Pre-Chorus(those are 10's, not 1's and 0's)
--------------------------------------------|
--------------------------------------------|
--------------------------------------------|
--------------------------------------------| X4
-------------------1010----1010----10101010-|
-777777777777777777----7777----7777---------|
 ..................    ....    ....
then
-----------------------------------------|
-----------------------------------------|
-----------------------------------------|
--------------------5~-------------------|
--------------------5~-------------------|
-777777777777777777-5~-------------------|
 ..................
**bit of bass played here without guitar**
Interlude 1 is the verse
Fill(looks like the verse, but kick your dist. here)
-----------------------------------------|
-----------------------------------------|
-----------------------------------------|
-121212----------------------------------|
--------121212-12h14p12------------------|
-----------------------------------------|
Interlude 2
-----------------------------------------|
-----------------------------------------|
-----------------------------------------|
-0222---0222---0333--121212--------------|
-0222-X-0222-x-0333--------1212-12h14p12-|
-0222-X-0222-x-0333----------------------|
Interlude 3 is your Pre-Chorus twice
Outro is you Pre-Chorus twice, and end on
-----
-----
-----
-3~--
-3~--
-3~--
            
Submit corrections

comments powered by Disqus
↑ Back to top | 40 Below Summer Tabs for Endorphins. Lyrics for acoustic guitar and electric guitar. Tablatures and chords are parodies/interpretations of the original songs. You may use it for private study, scholarship, research or language learning purposes only