» » »

40 Below Summer, Breathless Tabs (ver.2)

Artists:  A B C D E F G H I J K L M N O P Q R S T U V W X Y Z # 

Breathless Tabs (ver.2)

40 Below Summer Tabs
Rating:
3/5 (3 votes)
Breathless lessons Tabs too difficult? Try these video lessons and learn fast
                (Intro)
B Thickest
F#
B
E
G#
C#

I haven't seen a correct tab of this yet. I doubt I'm right, but it's a shot at the 
I'll add more as figure it out.


B|--7--------9---------5--------7------9------5------------------|
F#|---7--------9---------5--------7------9------5----------------|
B|------9--------0---------4--------9------0------4--------------|
E|----------------------------------------------------------0----|
G#|--------------------------------------------------------------|
C|---------------------------------------------------------------|

|-7-------9------5----------------------------------------------------------|
|---7-------9------5-----------5-----5------5-------------------------------|
|-----9-------0------4-------4-----4------4---------------------------------|
|--------------------------0-----0------0-----------------------------------|
|---------------------------------------------------------------------------|
|---------------------------------------------------------------------------|
I think they may repear the 7 7 9 and 9 9 0, but I'm not sure. I definately hear teh 0 4 5 though.


I have no idea on the pre chorus. I play this and it sounds okay, but I know it's not 
              The Opening to the chorus starts like this but
                               I have no idea where it goes from there
|---7-----9------3-------|------7---9-----------------------------------------------|
|---7-----9------3-------|------7---9-----------------------------------------------|
|---7-----9------3-------|------7---9-----------------------------------------------|
|------------------------|----------------------------------------------------------|
|------------------------|----------------------------------------------------------|
|------------------------|----------------------------------------------------------|
            
Submit corrections

comments powered by Disqus
↑ Back to top | 40 Below Summer Tabs for Breathless. Lyrics for acoustic guitar and electric guitar. Tablatures and chords are parodies/interpretations of the original songs. You may use it for private study, scholarship, research or language learning purposes only