» » »

Better Life Tabs (ver.1)

Artists:  A B C D E F G H I J K L M N O P Q R S T U V W X Y Z # 

Better Life Tabs (ver.1)

40 Below Summer
Rating:
0/5 (0 votes)

Hard to play? Try these video lessons and learn fast.
                40 Below Summer: Better Life
Tuning: Drop B

Intro
-----------------------------------------|
-----------------------------------------|
-----------------------------------------|
-0004443334443344------------------------|
-0004443334443344------------------------|
-0004443334443344------------------------|

-----------------------------------------|
-----------------------------------------|
-----------------------------------------|
-0004443334443344------------------------|
-0004443334443344------------------------|
-0004443334443344------------------------|
 ...
-----------------------------------------|
-----------------------------------------|
-----------------------------------------|
-0004443334443344------------------------|
-0004443334443344------------------------|
-0004443334443344------------------------|

-----------------------------------------|
-----------------------------------------|
-----------------------------------------|
-00044433344433443-----------------------|
-00044433344433443-----------------------|
-00044433344433443-----------------------|
 ................
Verse
-----------------------------------------|
-----------------------------------------|
-----------------------------------------|
-2-2--2-2-2-2-23---2222222233333333------|
-2-2--2-2-2-2-23-x-2222222233333333------|
-2-2--2-2-2-2-23-x-2222222233333333------|
Chorus
-----------------------------------------|
-----------------------------------------|
-7777777777777777-33333333-55555555------|
-7777777777777777-33333333-55555555------|
-5555555555555555-11111111-33333333------|
-----------------------------------------|
Interlude 1
-----------------------------------------|
-----------------------------------------|
-----------------------------------------|
-0004443334443344------------------------|
-0004443334443344------------------------|
-0004443334443344------------------------|

-----------------------------------------|
-----------------------------------------|
-----------------------------------------|
-0004443334443344------------------------|
-0004443334443344------------------------|
-0004443334443344------------------------|
 ...
-----------------------------------------|
-----------------------------------------|
-----------------------------------------|
-0004443334443344------------------------|
-0004443334443344------------------------|
-0004443334443344------------------------|

-----------------------------------------|
-----------------------------------------|
-----------------------------------------|
-0004443334443344------------------------|
-0004443334443344------------------------|
-0004443334443344------------------------|
 ................
Interlude 2
-------9-7-9-7-97------------------------|
-7h8p7-----------------------------------|
-----------------------------------------|
-----------------------------------------|
-----------------------------------------|
-----------------------------------------|
Interlude 3
-----------------------------------------|
-----------------------------------------|
-----------------------------------------|
-0004443334443344------------------------|X4
-0004443334443344------------------------|
-0004443334443344------------------------|
Outro
-----------------------------------------|
-----------------------------------------|
-----------------------------------------|
-2-2--2-2-2-2-23~~~----------------------|
-2-2--2-2-2-2-23~~~----------------------|
-2-2--2-2-2-2-23~~~----------------------|
            
Hard to play? Try these video lessons and learn fast. | Correct




comments powered by Disqus
↑ Back to top | Tablatures and chords are parodies/interpretations of the original songs. You may use it for private study, scholarship, research or language learning purposes only