» » »

All About You Bass tabs (ver.1)

Artists:  A B C D E F G H I J K L M N O P Q R S T U V W X Y Z # 

All About You Bass tabs (ver.1)

40 Below Summer
Rating:
0/5 (0 votes)

Hard to play? Try these video lessons and learn fast.
                
Standard Tuning (EADG)

Intro/Verse:

G/-------------0--------------------
D/-------3-3-2---------3-3-2-0------
A/-2---2---------2---2---------2--2-
E/---2-------------2-------------2--

Verse:

G/--------------------------
D/--------3-2---------------
A/-2h3p-4-----2-----2-2-2-2-
E/--------------------------

Chorus:

G/--------------------
D/--------------------
A/-2-2-2-2-2--2-2-2-2-
E/--------------------
            
Hard to play? Try these video lessons and learn fast. | Correct




comments powered by Disqus
↑ Back to top | Tablatures and chords are parodies/interpretations of the original songs. You may use it for private study, scholarship, research or language learning purposes only