» » »

40 Below Summer, Alienation Tabs (ver.1)

Artists:  A B C D E F G H I J K L M N O P Q R S T U V W X Y Z # 

Alienation Tabs (ver.1)

40 Below Summer Tabs
 Rating:
4.2/5 (5 votes)
Alienation lessons Tabs too difficult? Try these video lessons and learn fast
                40 Below Summer: Alienation
Tuning:Drop B

Intro(clean, wah or phaser fade in and out)
-----------------------------------------|
-----------------------------------------|
----7-7-----7-7-----7-7-----7-7----------|
---7-7-7---7-7-7---7-7-7---7-7-7---------|X3
-----------------0-------5---------------|
-5-------8-------------------------------|
4th time(kick dist. and take off fade effect at the 7 powercord)
-----------------------------------------|
-----------------------------------------|
----7-7-----7----------------------------|
---7-7-7---7-7--7~-----------------------|
----------------7~-----------------------|
-5-------8------7~-----------------------|
Verse
-----------------------------------------|
-----------------------------------------|
-----------------------------------------|
-----------------------------------------|
-----------------------------------------|
-000--000--000--000----------------------|
 ...  ...  ...  ...
-----------------------------------------|
-----------------------------------------|
-----------------------------------------|
-----------------------------------3~----|
-----------------------------------3~----|
-000-333--000-333--000-333--000-33-3~----|
 ... ...  ... ...  ... ...  ... ..
Pre-Chorus
-----------------------------------------|
-----------------------------------------|
-----------------------------------------|
-----------------------------------------|
----00-0-0-0-0000-----33-3-3-3-3333------|
-00-00-0-0-0-0000--33-33-3-3-3-3333------|
 ..                ..
ChorusX2
-----------------------------------------|
-----------------------------------------|
-9999--9999--9999-----10-10101010-1010---|
-9999--9999--9999-7-5-8--8-8-8-8--8-8----|
-7777--7777--7777-7-5-8--8-8-8-8--8-8----|
-----00----00-----7-5-8--8-8-8-8--8-8----|
     ..    ..
----------------------------------------------|
----------------------------------------------|
-9999--9999--9999-----6-6666-66-----------6~--|
-9999--9999--9999-7-5-4-4444-44-----------4~--|2nd time around
-7777--7777--7777-7-5-4-4444-44-----------4~--|intead on strumming
-----00----00-----7-5-4-4444-44-----------4~--|this cord.
     ..    ..
Interlude 1 is the intro.
Interlude 2
-----------------------------------------|
-----------------------------------------|
----7-7----7-7----7-7----7777------------|
-----7-7----7-7----7-7---5555------------|
-----------------------------------------|
-00------00-----00-----00----------------|
 ..      ..     ..     ..
Last time
-----------------------------------------|
-----------------------------------------|
---7-7----7--7~--------------------------|
----7-7----7-5~--------------------------|
-----------------------------------------|
-00-----00-------------------------------|
 ..     ..
Fill before last Chorus
-----------------------------------------|
-----------------------------------------|
-9999--9999--9999-----6~-----------------|
-9999--9999--9999-7-5-4~-----------------|
-7777--7777--7777-7-5-4~-----------------|
-----00----00-----7-5-4~-----------------|
            
Submit corrections

comments powered by Disqus
↑ Back to top | 40 Below Summer Tabs for Alienation. Lyrics for acoustic guitar and electric guitar. Tablatures and chords are parodies/interpretations of the original songs. You may use it for private study, scholarship, research or language learning purposes only