» » »

409 Arrest, The War Against Mankind Tabs (ver.1)

Artists:  A B C D E F G H I J K L M N O P Q R S T U V W X Y Z # 

The War Against Mankind Tabs (ver.1)

409 Arrest Tabs
 Rating:
4/5 (4 votes)
The War Against Mankind lessons Tabs too difficult? Try these video lessons and learn fast
                =Five Times 
*=Pause
x=Palm Mute

Intro: #1
e----------|
B----------|
D---BASS---|
G----------|
A----------|
E----------|

Intro: #2
e---------------------------------------|
B---------------------------------------|
D---------------------------------------|
G-2-2-2--*-*--2-2-2--5-5-5-5--7-7-7-7---|   X4
A-2-2-2--*-*--2-2-2--5-5-5-5--7-7-7-7---|
E-0-0-0--*-*--0-0-0--3-3-3-3--5-5-5-5---|

Chorus:
e------------------------------|
B------------------------------|
D------------------------------|
G--2-2-2>--5-5-5-5--7-7-7-7----|   X4
A--2-2-2>--5-5-5-5--7-7-7-7----|
E--0-0-0>--3-3-3-3--5-5-5-5----|

Verse:
e------------------------------|
B------------------------------|
D------------------------------|
G--2-2-2>--5-5-5-5--7-7-7-7----|  X4 (Palm Mute)
A--2-2-2>--5-5-5-5--7-7-7-7----|
E--0-0-0>--3-3-3-3--5-5-5-5----|

Pre-Chorus:
e------------------------------|
B------------------------------|
D------------------------------|
G--2-2-2>--5-5-5-5--7-7-7-7----|   X4
A--2-2-2>--5-5-5-5--7-7-7-7----|
E--0-0-0>--3-3-3-3--5-5-5-5----|

Back To Chorus

Back To Verse

Outro:
e----------------------------------------------------|
B----------------------------------------------------|
D----------------------------------------------------|
G--2-2-2--**--2-2-2--5-5-5-5--7-7-7-7-------2-2-2----|  X1
A--2-2-2--**--2-2-2--5-5-5-5--7-7-7-7-------2-2-2----|
E--0-0-0--**--0-0-0--3-3-3-3--5-5-5-5-------0-0-0----|
            
Submit corrections

comments powered by Disqus
↑ Back to top | 409 Arrest Tabs for The War Against Mankind. Lyrics for acoustic guitar and electric guitar. Tablatures and chords are parodies/interpretations of the original songs. You may use it for private study, scholarship, research or language learning purposes only