» » »

Problems At Home Tabs (ver.1)

Artists:  A B C D E F G H I J K L M N O P Q R S T U V W X Y Z # 

Problems At Home Tabs (ver.1)

409 Arrest
Rating:
0/5 (0 votes)

Hard to play? Try these video lessons and learn fast.
                Intro:
e-----------------------------------------------------------  
b-----------------------------------------------------------
g--5-----5-------7------99------------------------------------
d--5-----5--5----7--7---99--9-9-------------------------------
a--3-----3--5----5--7---77--9-9-------------------------------
E-----------3-------5-------7-7-------------------------------

Verse:
e-----------------------------------------------------------
b-----------------------------------------------------------
g--55555----------77777-------------------------------------
d--55555--555555--77777-777777------------------------------
a--33333--555555--55555-777777------------------------------
E---------333333--------555555------------------------------
            
Hard to play? Try these video lessons and learn fast. | Correct




comments powered by Disqus
↑ Back to top | Tablatures and chords are parodies/interpretations of the original songs. You may use it for private study, scholarship, research or language learning purposes only