» » »

409 Arrest, Pay The Price Tabs (ver.1)

Artists:  A B C D E F G H I J K L M N O P Q R S T U V W X Y Z # 

Pay The Price Tabs (ver.1)

409 Arrest Tabs
 Rating:
4/5 (4 votes)
Pay The Price lessons Tabs too difficult? Try these video lessons and learn fast
                e------------------------------------------|
B------------------------------------------|
D--5-5-5--7-7-7----------------------------|
G--5-5-5--7-7-7--3-3-3-----7-7-7--5-5-5----|   X4
A--3-3-3--5-5-5--3-3-3-----7-7-7--5-5-5----|
E----------------1-1-1-----5-5-5--3-3-3----|

Verse:
e------------------|
B------------------|
D------------------|
G--3-3-3--2-2-2----|   X4
A--3-3-3--2-2-2----|
E--1-1-1--0-0-0----|

Bridge:
e-----------------|
B-----------------|
D-----------------|
G-3-x-3--2-x-2----|  X4 (Palm Mute)
A-3-x-3--2-x-2----|
E-1-x-1--0-x-0----|
            
Submit corrections

comments powered by Disqus
↑ Back to top | 409 Arrest Tabs for Pay The Price. Lyrics for acoustic guitar and electric guitar. Tablatures and chords are parodies/interpretations of the original songs. You may use it for private study, scholarship, research or language learning purposes only