» » »

Drunk Men Fall Down Tabs (ver.1)

Artists:  A B C D E F G H I J K L M N O P Q R S T U V W X Y Z # 

Drunk Men Fall Down Tabs (ver.1)

409 Arrest
Rating:
0/5 (0 votes)

Hard to play? Try these video lessons and learn fast.
                Creppy G chord
   cr*ppy C chord
   3rd fret bottom string and open

e----------------------------------
B---------------------------------- 
D---------888---------10--10-10---- 
G---555---888---x3----10--10-10----    x1 
A---555---666---------8---8--8----- 
E---333---------------------------- 

Verse:
e---------------------------------- 
B----------------------------------
D--------888----------10--10--10---  x1 
G--555---888---x3-----10--10--10--- 
A--555---666----------8---8---8---- 
E--333-----------------------------

 same as the first verse but pick downward
            
Hard to play? Try these video lessons and learn fast. | Correct




comments powered by Disqus
↑ Back to top | Tablatures and chords are parodies/interpretations of the original songs. You may use it for private study, scholarship, research or language learning purposes only