» » »

Don't Go And Leave Tabs (ver.1)

Artists:  A B C D E F G H I J K L M N O P Q R S T U V W X Y Z # 

Don't Go And Leave Tabs (ver.1)

409 Arrest
Rating:
0/5 (0 votes)

Hard to play? Try these video lessons and learn fast.
                e----------------------------------------------------|
B----------------------------------------------------|
G--------6-6-6--7-7-7--9-9-9--6-6-6--7-7-7--6-6-6----|
D-7-7-7--6-6-6--7-7-7--9-9-9--6-6-6--7-7-7--6-6-6----|  X2
A-7-7-7--4-4-4--5-5-5--7-7-7--4-4-4--5-5-5--4-4-4----|
E-5-5-5----------------------------------------------|

Verse:
e----------------------------------------------------|
B----------------------------------------------------|
G--------4-4-4--7-7-7--9-9-9--6-6-6--7-7-7--6-6-6----|
D-4-4-4--4-4-4--7-7-7--9-9-9--6-6-6--7-7-7--6-6-6----|   X4
A-4-4-4--2-2-2--5-5-5--7-7-7--4-4-4--5-5-5--4-4-4----|
E-2-2-2----------------------------------------------|

Solo:
e----------------------------------------------------|
B----------------------------------------------------|
G--------4-x-4--7-x-7--9-x-9--6-x-6--7-x-7--6-x-6----|
D-4-x-4--4-x-4--7-x-7--9-x-9--6-x-6--7-x-7--6-x-6----|  X4 (Palm Muted)
A-4-x-4--2-x-2--5-x-7--7-x-7--4-x-4--5-x-5--4-x-4----|
E-2-x-2----------------------------------------------|
            
Hard to play? Try these video lessons and learn fast. | Correct




comments powered by Disqus
↑ Back to top | Tablatures and chords are parodies/interpretations of the original songs. You may use it for private study, scholarship, research or language learning purposes only