>
 >
Redemption

Redemption Guitar Tabs

3rd Strike - Redemption chords, tabs, tablatures, lyrics

Guitar lessons | Add/correct | Request | Top 50 tabs Artists:  A B C D E F G H I J K L M N O P Q R S T U V W X Y Z 0-9

Redemption Guitar Tabs – 3rd Strike

CD, Sheet music, Poster

Do you like Redemption? Share with your friends now
Tabs
note - played in drop D tuning 1/2 step down

Intro (1x)  (clean)
E:-----------------------------------------------------------------------------------
B:-----------------------------------------------------------------------------------
G:-----------------------------------------------------------------------------------
D:---7-7-7-7-7-7-7-7-7h8-8-8-8-8-8-8-8-7-7-7-7-7-7-7-7-7h8-8-8-8-8-8-8-8-8-8---------
A:---5-5-5-5-5-5-5-5-5-5-5-5-5-5-5-5-5-6-6-6-6-6-6-6-6-6-6-6-6-6-6-6-6-6-6-6---------
D:---5-5-5-5-5-5-5-5-5-5-5-5-5-5-5-5-5-6-6-6-6-6-6-6-6-6-6-6-6-6-6-6-6-6-6-6---------

Chorus (2x) (distortion)
E:-----------------------------------------------------------------------------------
B:-----------------------------------------------------------------------------------
G:-----------------------------------------------------------------------------------
D:---7-7-7-7-7-7-7-7-7h8-8-8-8-8-8-8-8-7-7-7-7-7-7-7-7-7h8-8-8-8-8-8-8-8-8-8---------
A:---5-5-5-5-5-5-5-5-5-5-5-5-5-5-5-5-5-6-6-6-6-6-6-6-6-6-6-6-6-6-6-6-6-6-6-6---------
D:---5-5-5-5-5-5-5-5-5-5-5-5-5-5-5-5-5-6-6-6-6-6-6-6-6-6-6-6-6-6-6-6-6-6-6-6---------

Verse (chorus pedal effect)
E:-----------------------------------------------------------------------------------
B:-----------------------------------------------------------------------------------
G:-----------------------------------------------------------------------------------
D:---8~---7-8----8~---7-8----8~---7-8----8~---7-8------------7-8---------------------
A:---5~----------5~----------5~----------5~--------------5---------------------------
D:---5~----------5~----------5~----------5~----------5-------------------------------

Heavy Riff (3x) (heavy distortion)
E:-----------------------------------------------------------------------------------
B:-----------------------------------------------------------------------------------
G:-----------------------------------------------------------------------------------
D:---5-5-x-x-5-5-x-x-----------------------------------------------7~----------------
A:---5-5-x-x-5-5-x-x-----------------------------------------------5~----------------
D:---5-5-x-x-5-5-x-x--/3*---(slide down 3rd fret harmonics)--------5~----------------

Bridge (4x) (chorus/slight delay)
E:-----------------------------------------------------------------------------------
B:-----------------------------------------------------------------------------------
G:-----------------------------------------------------------------------------------
D:---------------7----------------------------8----------------------------8---------
A:-------5-----------5----------------5-----------5----------------6-----------6-----
D:---5-------5-----------5--------5-------5-----------5--------6-------6-----------6-

E:-------------------------------|---------------------------------------------------
B:-------------------------------|------(last bar)-----------------------------------
G:-------------------------------|---------------------------------------------------
D:---------------8---------------|---------------8-------8---------------------------
A:-------5-----------5-----------|-------5-----------5-------5-----------------------
D:---5-------5-----------5-------|---5-------5---------------------------------------

~Song pattern~
Intro
Chorus
Verse
Chorus
Verse
Chorus
Heavy Riff
Bridge
Chorus
Heavy Riff

~ Rick





Comments


Popular 3rd Strike tabs & chords
No Light Ver Bass Tabs
Paranoid Bass Tabs
No Light Tabs
No Light 1 Tabs
No Light 2 Tabs
Paranoid Tabs


Song lyrics



↑ Back to top | Tablatures and chords are parodies/interpretations of the original songs. You may use it for private study, scholarship, research or language learning purposes only
© 2014 AZChords.com Contact us | Privacy policy | DMCA | Add/correct tabs | Request tabs | Top 50 tabs