» » »

3oh3, My First Kiss Bass tabs (ver.1)

Artists:  A B C D E F G H I J K L M N O P Q R S T U V W X Y Z # 

My First Kiss Bass tabs (ver.1)

3oh3 Tabs
 Rating:
4/5 (4 votes)
My First Kiss lessons Tabs too difficult? Try these video lessons and learn fast
1
                verse:
G|--------------------------|
D|--------------------------|
A|---7----------------------|
E|--------------------------|



pre chorus: (E D G C)x2
G|--------------------------------|
D|--------------------------------|
A|---7-------------------5--------|
E|--------------------------------|
     In the back of the car

G|-----------------------------------------------|
D|-----------------------------------------------|
A|-------------------------------------------3---|
E|----------------------3------------------------|
     On the way to the bar I got you on my lips



chorus: (E D C A)
G|------------------------------------------------------|
D|------------------------------------------------------|
A|---7-----------5---------3----------------------------|
E|----------------------------------5-------------------|
     She won't..Once she..If I had..You know..
            
Submit corrections

comments powered by Disqus
↑ Back to top | 3oh3 Bass for My First Kiss. Lyrics for acoustic guitar and electric guitar. 1 Tablatures and chords are parodies/interpretations of the original songs. You may use it for private study, scholarship, research or language learning purposes only