>
 >
The Great Hall Of Feasting

The Great Hall Of Feasting Guitar Tabs

3 Inches Of Blood - The Great Hall Of Feasting chords, tabs, tablatures, lyrics

Guitar lessons | Add/correct | Request | Top 50 tabs Artists:  A B C D E F G H I J K L M N O P Q R S T U V W X Y Z 0-9

The Great Hall Of Feasting Guitar Tabs – 3 Inches Of Blood

CD, Sheet music, Poster

Do you like The Great Hall Of Feasting? Share with your friends now
Tabs

.=palm mute
/\=slide up down
h=hammer on
p=pull off
b=bend
br=bend and release
brb=guess...

standard tuning

I had to really fine-tune the intro but it was worth it.
this is a rad party song. hope you like.

intro "A"

  g.1
e|--------------------------------------------------------------------------|
B|--------------------------------------------------------------------------|
G|----.....------.....----------.....------.....----------------------------|
D|----------5-5--------7--------------5-5--------7--------------------------|
A|-7--------3-3--5-5-5-5-5---7--------3-3--5-5-5-5-5------------------------|
E|-5--2-3-5--------------3---5--2-3-5--------------3------------------------|
 |g.2
e|--------------------------------------------------------------------------|
B|--------------------------------------------------------------------------|
G|----......-----......---------......-----......---------------------------|
D|----------1010-12121212-------------1010-12121212-------------------------|
A|-12-9-1012-------------10--12-9-1012-------------10-----------------------|
E|--------------------------------------------------------------------------|
 |g.3
e|--------------------------------------------------------------------------|
B|--------------------------------------------------------------------------|
G|----......-----......---------......-----......---------------------------|
D|----------1010-12121212-------------1010-12121212-------------------------|
A|/12-9-1012-------------10-/12-9-1012-------------10-----------------------|
E|--------------------------------------------------------------------------|

  g.1
e|---------------------------------------------------------------------------|
B|---------------------------------------------------------------------------|
G|----.....------.....----------....------.....------------------------------|
D|----------5-5--------7-------------5-5--------7----------------------------|
A|-7--------3-3--5-5-5-5-5---7-------3-3--5-5-5-5-5--------------------------|
E|-5--2-3-5--------------3---5--23-5--------------3--------------------------|
 |g.2
e|---------------------------------------------------------------------------|
B|---------------------------------------------------------------------------|
G|----......-----......---------.....-----......-----------------------------|
D|----------1010-12121212------------1010-12121212---------------------------|
A|-12-9-1012-------------10--12-91012-------------10-------------------------|
E|---------------------------------------------------------------------------|
 |g.3
e|----------------------------------------......-------15b-15b-15brb\--------|
B|----------------------------------------1515151513-------------------------|
G|----......-----......---------.....----------------------------------------|
D|----------1010-12121212------------1010------------------------------------|
A|/12-9-1012-------------10-/12-91012----------------------------------------|
E|---------------------------------------------------------------------------|
 |g.4
e|---------------......---------.....-----......-------15b-15b-15brb\--------|
B|----......------------------------------1515151513-------------------------|
G|----------1212-14141414----------------------------------------------------|
D|/14-111214-------------12----------1010------------------------------------|
A|--------------------------/12-91012----------------------------------------|
E|---------------------------------------------------------------------------|

 intro"B" played while G.3+4 are bending the 15th fret
  (2x)
  g.1
e|--------------------------------------------------------------------------|
B|--------------------------------------------------------------------------|
G|--------------------------------------------------------------------------|
D|------...-------...-----------...-------...-------------------------------|
A|---------5-3--35323-2-3----------2-3--35323-2-3---------------------------|
E|-5-5--532----------------5-5--235-----------------------------------------|
 |g.2
e|--------------------------------------------------------------------------|
B|--------------------------------------------------------------------------|
G|------...-------...-----------...-------...-------------------------------|
D|---------7-5--57545-4-5----------4-5--57545-4-5---------------------------|
A|-7-7--754----------------7-7--457-----------------------------------------|
E|--------------------------------------------------------------------------|

  verse.A
  g.1
e|--------------------------------------------------------------------------|
B|--------------------------------------------------------------------------|
G|--------------------------------------------------------------------------|
D|--------...---------...---------....-5-5-3-35-----------------------------|
A|-5-5-5-----5-5-5-5-----5-5-5-5-----5-3-3--5-------------------------------|
E|-3-3-3--363--3-3-3--363--3-3-3--363---------------------------------------|
 |g.2
e|--------------------------------------------------------------------------|
B|--------------------------------------------------------------------------|
G|--------------------------------------------------------------------------|
D|-------------------------------------5-5-3-35\----------------------------|
A|-5-----------------------------------3-3--5-------------------------------|
E|-3------------------------------------------------------------------------|

  verse.B
  g.1
e|--------------------------------------------------------------------------|
B|--------------------------------------------------------------------------|
G|--------------------------------------------------------------------------|
D|--------...---------...---------....-5------------------------------------|
A|-5-5-5-----5-5-5-5-----5-5-5-5-----5-3------------------------------------|
E|-3-3-3--363--3-3-3--363--3-3-3--363---------------------------------------|

  verse.C
  g.1+2
e|--------------------------------------------------------------------------|
B|--------------------------------------------------------------------------|
G|--------------------------------------------------------------------------|
D|--------...---------...---------....-5-5-3-3/5----------------------------|
A|-8-5-5-----5-5-5-5-----5-5-5-5-----5-3-3--5-------------------------------|
E|-6-3-3--363--3-3-3--363--3-3-3--363---------------------------------------|

  verse.D
  g.1+2
e|--------------------------------------------------------------------------|
B|--------------------------------------------------------------------------|
G|--------------------------------------------------------------------------|
D|--------...---------...---------....-5-5-3-3/5----------------------------|
A|-5-5-5-----5-5-5-5-----5-5-5-5-----5-3-3--5-------------------------------|
E|-3-3-3--363--3-3-3--363--3-3-3--363---------------------------------------|

  Bridge.A
  g.1
e|--------------------------------------------------------------------------|
B|------------.-..---.--.-.----.-------------.--.-.----.--.-.----.----------|
G|---------5p3-3------------------------------------------------------------|
D|-5555555----5-535p3--3----------5555555-5p3--3----------------------------|
A|-3333333-----------5--5-3-5p3---3333333----5--5-3-5p3--3------------------|
E|-----------------------------6-----------------------6--6-3-6p31----------|
 |g.1
e|--------------------------------------------------------------------------|
B|------------.-..---..-...----..------------..-...----..-...----.----------|
G|---------9p8-8------------------------------------------------------------|
D|-5555555----9-989p8--8----------5555555-9p8--8----------------------------|
A|-3333333-----------10-10810p8---3333333----10-10810p8--8------------------|
E|-----------------------------11----------------------11-11811p86----------|

  play verse.D, then this,

  verse.E
  g.1+2
e|--------------------------------------------------------------------------|
B|--------------------------------------------------------------------------|
G|--------------------------------------------------------------------------|
D|--------...---------...---------....-5-5-3h5p3----------------------------|
A|-5-5-5-----5-5-5-5-----5-5-5-5-----5-3-3------3---------------------------|
E|-3-3-3--363--3-3-3--363--3-3-3--363---------------------------------------|

 then the chorus.A
  (4x)
  g.1
e|--------------------------------------------------------------------------|
B|--------------------------------------------------------------------------|
G|-------------------57---5-------------------------------------------------|
D|-----57--5------------7--9-7-57-------------------------------------------|
A|-5------8--7-8-8----------------8-----------------------------------------|
E|--------------------------------------------------------------------------|
 |g.2
e|--------------------------------------------------------------------------|
B|--------------------------------------------------------------------------|
G|-------------------910--9-------------------------------------------------|
D|-----810--8-----------12-1012910------------------------------------------|
A|-8------12-101212---------------12----------------------------------------|
E|--------------------------------------------------------------------------|

 then Bridge.B
  g.1+2
e|--------------------------------------------------------------------------|
B|--------------------------------------------------------------------------|
G|-----------------4-2--2---------------------------------------------------|
D|-----...-----...-5-3--3-2-------------------------------------------------|
A|-7-7-----7-7-----5-3--3-3-------------------------------------------------|
E|-5-5-555-5-5-555--------3-------------------------------------------------|

then play verse.D 2x, verse.c, verse.D
  then chorus.B (2x)
  g.1
e|---------------------------------------------------------------------------|
B|---------------------------------------------------------------------------|
G|--.--------.--------.-------.-.-.-------.----------------------------------|
D|---------------5-----------------------------------------------------------|
A|5---5-8--5---5----5---5-8-7-------5-8-7------------------------------------|
E|--8--------8--------8-------8-5-8-------8----------------------------------|
 |g.2
e|-------------------------------------------------------------------------|
B|--..-------..-------..------......------..-------------------------------|
G|---------------12--------------------------------------------------------|
D|12--1215-12--1212-12--121514------121514---------------------------------|
A|--15--15---15-------15------151215------15-------------------------------|
E|-------------------------------------------------------------------------|

 g.1
e|---------------------------------------------------------------------------|
B|---------------------------------------------------------------------------|
G|--.--------.--------.-------.-----------.----------------------------------|
D|---------------5--------------5--------------------------------------------|
A|5---5-8--5---5----5---5-8-7-----8-7-8-7------------------------------------|
E|--8--------8--------8-------8-----------8----------------------------------|
 |g.2
e|-------------------------------------------------------------------------|
B|--..-------..-------..------..----------..-------------------------------|
G|---------------12-------------12-----------------------------------------|
D|12--1215-12--1212-12--121514----15141514---------------------------------|
A|--15--15---15-------15------15----------15-------------------------------|
E|-------------------------------------------------------------------------|

 for rhythm guitar behind the solo play verse.D (3x)

 oond zee solo goes...

e|--------------------------------------------------------------------------|
B|----------------------------1315------------------------------------------|
G|-------......---------121512----15121512----------------------------------|
D|-------------10/12----------------------12---10/12\10--10/12--------------|
A|-/10---101310-----------------------------13----------------13------------|
E|--------------------------------------------------------------------------|

e|---------------------------------------------------------------------------|
B|---------------------------------------------------------------------------|
G|---------------------------------------1212--------------------------------|
D|---------------------12--12131213151315------------------------------------|
A|-12h13p12--1213151315--15--------------------------------------------------|
E|---------15----------------------------------------------------------------|

e|--------------------------------------------------------------------------|
B|--------------------------------------------------------------------------|
G|---12h15p12--12h15p12--12h15p12--12h15p1215-15b---15br--------------------|
D|-15--------15--------15--------15-----------------------------------------|
A|--------------------------------------------------------------------------|
E|--------------------------------------------------------------------------|

e|--------------------------------------------------------------------------|
B|--------------------------------------------------------------------------|
G|-14h15p14h15-12h14p12h14-10h12p10h12-9h10p9h10-7h9p7h9-5h7p5h7-4h5p4h5----|
D|--------------------------------------------------------------------------|
A|--------------------------------------------------------------------------|
E|--------------------------------------------------------------------------|

e|--------------------------------------------------------------------------|
B|---------...-.....-..-----------------------------------------------------|
G|------------5-----5---5---5--5-5/7-7--------------------------------------|
D|-7h9p7\5-578-87578-87----8-8----------------------------------------------|
A|--------------------------------------------------------------------------|
E|--------------------------------------------------------------------------|

 then play chorus.A
  then this Chorus.C (2x) with 1-tab difference for 1st and 2nd time
  G.1
e|---------------------------------------------------------------------------|
B|---------------------------------------------------------------------------|
G|---------------------------------------------------------------------------|
D|---------------------------------------------------------------------------|
A|-2--------------------------5----------------7-----------------------------|
E|-0--------------------------3----------------5-----------------------------|
 |g.2                                                        1st 2nd
e|----------------------------------------------------------|---|-----------|
B|----------------------------------------------------------|---|-----------|
G|----------------------------------------------------7-----|---|-----------|
D|----979---979---9791097--79------979-----979-7-7-979-10979|---|7----------|
A|-7-7---7-7---7-7-------10---10-10---10-10-----------------|10-|-----------|
E|----------------------------------------------------------|---|-----------|

 then Chorus.D (2x) g.1 has same "1-tab" difference for 1st and 2nd ending.
  g.1
e|---------------------------------------------------------------------------|
B|---------------------------------------------------------------------------|
G|---------------------------------------------------------------------------|
D|------9-7-9------9-7-9------9-7-9109-7--9-7--------------------------------|
A|-7--7-------7--7-------7--7-----------10-----------------------------------|
E|---------------------------------------------------------------------------|
 |g.2
e|---------------------------------------------------------------------------|
B|---------------------------------------------------------------------------|
G|----------------------------------9----------------------------------------|
D|------121012-----121012-----121012-121091012-------------------------------|
A|-10-10------10-10------10-10-----------------------------------------------|
E|---------------------------------------------------------------------------|

  G.1                                         1st 2nd
e|-------------------------------------------|---|--------------------------|
B|-------------------------------------------|---|--------------------------|
G|-----------------------------------7-------|---|--------------------------|
D|-----9-7-9------9-7-9--7--7--9-7-9--109-7-9|---|7-------------------------|
A|-1010-------1010---------------------------|10-|--------------------------|
E|-------------------------------------------|---|--------------------------|
 |g.2
e|---------------------------------------------------------------------------|
B|---------------------------------------------------------------------------|
G|-----------------------------------109-------------------------------------|
D|-9-9-121012-9-9-121012-10-10-121012---1210129------------------------------|
A|---------------------------------------------------------------------------|
E|---------------------------------------------------------------------------|

 then this
  g.1+2
e|--------------------------------------------------------------------------|
B|--------------------------------------------------------------------------|
G|------...-----------------------------------------------------------------|
D|---------5-5--7-7---------------------------------------------------------|
A|-7-7-----3-3--5-5-5-------------------------------------------------------|
E|-5-5--532---------3-------------------------------------------------------|

  then play intro.B (4x)
  lastly...
  g.1
e|--------------------------------------------------------------------------|
B|--------------------------------------------------------------------------|
G|------...----...----------------------------------------------------------|
D|---------5-5----7---------------------------------------------------------|
A|-7-7-----3-3-5555-5-------------------------------------------------------|
E|-5-5--532---------3-------------------------------------------------------|
 |g.2
e|---------------------------------------------------------------------------|
B|---------------------------------------------------------------------------|
G|------...----...-----------------------------------------------------------|
D|---------2-2----4----------------------------------------------------------|
A|-7-7-----3-3-5555-5--------------------------------------------------------|
E|-5-5--532---------3--------------------------------------------------------|

  oond zen vee staht anutha...





Comments


Popular 3 Inches Of Blood tabs & chords
Battles And Brotherhood Tabs
Dark Messenger Tabs
Fear On The Bridge Tabs
Goatriders Horde Tabs
God Of The Cold White Silence Tabs
Night Maruaders Tabs
Nocturnal Command Tabs
Quest For The Manticore Tabs
Rejoice In The Fires Of Mans Demise Tabs
Trial Of Champions 2 Tabs


Song lyrics



↑ Back to top | Tablatures and chords are parodies/interpretations of the original songs. You may use it for private study, scholarship, research or language learning purposes only
© 2014 AZChords.com Contact us | Privacy policy | DMCA | Add/correct tabs | Request tabs | Top 50 tabs