» » »

Swordmaster Tabs (ver.1)

Artists:  A B C D E F G H I J K L M N O P Q R S T U V W X Y Z # 

Swordmaster Tabs (ver.1)

3 Inches Of Blood
Rating:
0/5 (0 votes)

Hard to play? Try these video lessons and learn fast.
                First of all, this is not the whole thing.. it's just about ten minutes of work
but it should be about correct so enjoy...;)



Main riff
|------------------------------------|
|------------------------------------|
|------------------------------------|
|-2-------5-5-5---2------------------|x2
|-2-------5-5-5---2----------0-3p2p0-|
|-0-------3-3-3---0--0-3p2p0---------|

|----------------------------------------|
|----------------------------------------|
|----------------------------0-3p2p0-----|
|--------------------0-3p2p0-------------|
|---------0-3p2p0------------------------|
|-0-3p2p0--------------------------------|

Verse
|------------------------------------------------|
|------------------------------------------------|
|------------------------------------------------|
|-2--------5---5---5--2--------------------------|X4
|-2--------5---5---5--2-----------------0-3p2p0--|
|-0-00000--3-0-3-0-3--0-00000-0-3p2p0------------|

|--------------------------------------|
|--------------------------------------|
|---------------------------0-3p2p0----|
|-------------------0-3p2p0------------|
|---------0-3p2p0----------------------|
|-0-3p2p0------------------------------|

Pre-cohrus
|-------------------------|
|-------------------------|
|-------------------------|
|-2>->--------------------|
|-2>->--------------------|
|-0>->--------------------|
let ring.....
the part after that i don't know yet 
but the cohrus is: 
|-------------------------|
|-------------------------|
|----5--4--7-5------------|
|-2--5--4--7-5--2---------|
|-2--3--2--5-3--2---------|
|-0-------------0---------|
 Swo----ord ma---ster 
The part after that is the same with bends

the solo is coming up ( im halfway through it) but this is the riff under the solo

|-------------------------|
|-------------------------|
|-----5-4--7-7-5-5--------|
|2----5-4--7-7-5-5-2------|
|2----3-2--505-303-2------|
|0000--------------0------|

And by the way.. IM NORWEGIAN SO DON'T COMPLAIN ABOUT MY ENGLISH!!
            
Hard to play? Try these video lessons and learn fast. | Correct




comments powered by Disqus
↑ Back to top | Tablatures and chords are parodies/interpretations of the original songs. You may use it for private study, scholarship, research or language learning purposes only