» » »

3 Inches Of Blood, Silent Killer Tabs (ver.1)

Artists:  A B C D E F G H I J K L M N O P Q R S T U V W X Y Z # 

Silent Killer Tabs (ver.1)

3 Inches Of Blood Tabs
 Rating:
4/5 (4 votes)
Silent Killer lessons Tabs too difficult? Try these video lessons and learn fast
1
                dont blame me if theres any mistakes

tuning: E A D G B e

r = let the note ring out

INTRO:
|--------------------------------------------------------------------|
|--------------------------------------------------------------------|
|---3-3--3---------------------------------------------3--3--3-3-3---|
|---3-3--3----3----------------3-5-5-5------3----------3--3--3-3-3---|
|---5-5--5--5---5-5--5-5-3-5-5---------5--5---5-5--5-5-1--1--1-1-1---|
|--------------------------------------------------------------------|

first time round
|-----------------------------------------------|--------------------|
|-----------------------------------------------|--------------------|
|-----------------------------------------------|--------------------|
|------3----------------3-5-5-5------3----------|--------------------|
|----5---5-5--5-5-3-5-5---------5--5---5-5--5-5-|--3-5-3-3-0-0-3-5---|
|-----------------------------------------------|--------------------|

second time round                       x2
|-----------------------------------------------|--------------------|
|-----------------------------------------------|--------------------|
|-----------------------------------------------|--------------------|
|------3----------------3-5-5-5------3----------|--------------------|
|----5---5-5--5-5-3-5-5---------5--5---5-5--5-5-|--0-3-0-1r----------|
|-----------------------------------------------|--------------------|

(couldnt figure out the solo)

|-------------------------------------------------------------------------|
|-------------------------------------------------------------------------|
|---2--2--2r------5r---------  ----7r-----2r------3------5----------------|
|---2--2--2r------5r------5r------7r-----2r------3-[x16]-5-[x16]----------|
|---0--0--0r------3r------5r------5r-----0r------1------3-----------------|
| ------------------------3r----------------------------------------------|


|--------------------------------------------------------------------|
|--------------------------------------------------------------------|
|--------------------------------------------------------------------|
|------3----------------3-5-5-5------3-------------------------------|
|----5---5-5--5-5-3-5-5---------5--5---5-5--5-5----3-5-3-3-0-0-3-5---|
|--------------------------------------------------------------------|

VERSE:
|--------------------------------------------------------------------|
|--------------------------------------------------------------------|
|---7-----3-----5---5----7-------------------------------------------|  x2
|---7-----3-----5---5----7-------------------3-----------------------|
|---5-----1-----3---3----5------5---5-3-0-3----5--5-3-0-3-5----0-3-5-|
|-----------------------------------------------------------3--------|

|-----------------------------------------------------------------------|
|-----------------------------------------------------------------------|
|---7-----3-----5---5---------------------------------------------------|
|---7-----3-----5---5----7--7------7-7----------------------------------|
|---5-----1-----3---3----7--7-[x14]-7-7---------------------------------|
|------------------------5--5------5-5----------------------------------|

couldnt figure out the next bit

CHORUS:                                                         first ending of chorus
|------------------------------|--------------------|
|------------------------------|--------------------|
|---7r-----3--5r----3--5r----5-|--7r----------------|
|---7r-----3--5r----3--5r----5-|--7r----------------|
|---5r-----1--3r----1--3r----3-|--5r----------------|
|------------------------------|--------------------|

             second ending of chorus
|--------------------------------------------------------------------|
|--------------------------------------------------------------------|
|--------------------------------------------------------------------|
|------3----------------3-5-5-5------3-------------------------------|
|----5---5-5--5-5-3-5-5---------5--5---5-5--5-5----3-5-3-3-0-0-3-5---|
|--------------------------------------------------------------------|

VERSE:
|--------------------------------------------------------------------|
|--------------------------------------------------------------------|
|---7-----3-----5---5----7-------------------------------------------|  x2
|---7-----3-----5---5----7-------------------3-----------------------|
|---5-----1-----3---3----5------5---5-3-0-3----5--5-3-0-3-5----0-3-5-|
|-----------------------------------------------------------3--------|

|-----------------------------------------------------------------------|
|-----------------------------------------------------------------------|
|---7-----3-----5---5---------------------------------------------------|
|---7-----3-----5---5----7--7------7-7----------------------------------|
|---5-----1-----3---3----7--7-[x14]-7-7---------------------------------|
|------------------------5--5------5-5----------------------------------|

couldnt figure out the next bit

CHORUS:                                                         first ending    |
|------------------------------|-------------|----------------------------------|
|------------------------------|-------------|----------------------------------|
|---7r-----3--5r----3--5r----5-|--7r---------|----------------------------------|
|---7r-----3--5r----3--5r----5-|--7r---------|------3----------------3-5-5-5----|
|---5r-----1--3r----1--3r----3-|--5r---------|----5---5-5--5-5-3-5-5---------5--|
|------------------------------|-------------|----------------------------------|

       second ending
-------------------------------------|
-------------------------------------|
-------------------------------------|
---3---------------------------------|
-5---5-5--5-5----3-5-3-3-0-0-3-5-----|
-------------------------------------|



that basically the song 'Silent Killer' by '3 Inches of Blood'

enjoy playing
            
Submit corrections

comments powered by Disqus
↑ Back to top | 3 Inches Of Blood Tabs for Silent Killer. Lyrics for acoustic guitar and electric guitar. 1 Tablatures and chords are parodies/interpretations of the original songs. You may use it for private study, scholarship, research or language learning purposes only