» » »

Premonition Of Pain Bass tabs (ver.1)

Artists:  A B C D E F G H I J K L M N O P Q R S T U V W X Y Z # 

Premonition Of Pain Bass tabs (ver.1)

3 Inches Of Blood
Rating:
0/5 (0 votes)

Hard to play? Try these video lessons and learn fast.
                There was no bass tab, so i tried to tab it out.
I didn't know what the hell the chorus or the couplet was, maybe I picked wrong. Here it goes...

=Intro=
G---------------------|
D---------------------|
A---------------------|
D-7~-3-2--5-7-7--10-5-|

G-----------------------|
D-----------------------|  3x
A-----------------------|
D-7-7--3-2--5-7-7--10-5-|

G-----|
D-----|
A-----|
D-9-3-|

=Couplet=
G------------------------------|
D------------------------------|  4x
A------------------------------|
D-77777-77777-33333/1010101010-|

G----------------|
D----------------|  4x (don't play the 5 the last time)
A----------------|
D-7~-3~-10~-(5~)-|

G---------------|
D---------------|
A-------3-5-6-8-|
D-5-7-8---------|

G------------------------------------|
D------------------------------------|  4x
A----------------------------3-5-6-8-|
D-7777-7-3333-3-101010-5-7-8---------|

=Bridge=
G-------------------------------------------|
D-------------------------------------------|
A-------------------------------------------|
D-3-555555-3-5555-8-7-5--3-555555-3-555-8-7-|

G---------------------------------------------|
D---------------------------------------------|
A---------------------------------------------|
D-5-777777-5-7777-10-9-7--5-777777-5-777-10-9-|

G-------------------------------------------|
D-------------------------------------------|
A-------------------------------------------|
D-2-333333-2-3333-5-3-2--2-333333-2-333-5-2-|

G---------------------------------------------|
D---------------------------------------------|
A---------------------------------------------|
D-5-777777-5-7777-10-9-7--5-777777-5-777-10-9-|

=Riff=
G-----------------------------------------------------|
D-----------------------------------------------------| 
A-----------------------------------------------------|     
D-7-777777-7-7777777-7-777777-7-777-(10-9-10-12-10-9)-|    

G--------------------------------------------------------|
D--------------------------------------------------------| 2x(last time play 
A--------------------------------------------------------|    the (10-9...9)
D-7-777777-10-7777777-12-777777-15-777-(10-9-10-12-10-9)-|    3 times)

G---------------------------------------|
D---------------------------------------|  2x (9h10 play fast!)
A---------------------------------------|
D-1010-99-77-99--1010-99-77-9h10h9h10h9-|

=Chorus=
G--------------|
D--------------|  4x
A--------------|
D-7~-7~-3~-3-5-|

G-------------------------|
D-------------------------|  2x
A-------------------------|
D-7x7x7-7x7x7-3x3x3-5x5x5-|

G--------------------------|
D--------------------------|
A--------------------------|
D-777777-555555-1010101010-|

G-------------------------|
D-------------------------|  2x
A-------------------------|
D-7x7x7-7x7x7-3x3x3-5x5x5-|

G----------------------|
D----------------------|
A----------------------|
D-777777-333333-555555-|

=Couplet=
G------------------------------|
D------------------------------|  4x
A------------------------------|
D-77777-77777-33333/1010101010-|

G----------------|
D----------------|  4x (don't play the 5 the last time)
A----------------|
D-7~-3~-10~-(5~)-|

G---------------|
D---------------|
A-------3-5-6-8-|
D-5-7-8---------|

=Riff=
G---------------------------------------|
D---------------------------------------|  2x (9h10 play fast!)
A---------------------------------------|
D-1010-99-77-99--1010-99-77-9h10h9h10h9-|

=Chorus=
G--------------|
D--------------|  4x
A--------------|
D-7~-7~-3~-3-5-|

G-------------------------|
D-------------------------|  4x
A-------------------------|
D-7x7x7-7x7x7-3x3x3-5x5x5-|

=Outro=
G--------------|
D--------------| 
A--------------|
D-7~-7~-3~-3-5-|

G----------------------|
D----------------------|
A----------------------|
D-7~-7~-3~333-5-3-5-7~-|

...Plz Rate...
            
Hard to play? Try these video lessons and learn fast. | Correct




comments powered by Disqus
↑ Back to top | Tablatures and chords are parodies/interpretations of the original songs. You may use it for private study, scholarship, research or language learning purposes only